You are on page 1of 5

Twilight Time Chords by Platters

D-32003
F#7-x21202
Bm7-020000
D7-320001
G-x32010
Gm-xx5543
B9-020102
E9-x40200
A11-xx0010
A9-x54555
A#dim-xx1212
G6 xx2213
D7xx0212
A#7-xx1323

D
F#7
Heavenly shades of night are falling, it's Twilight Time
Bm7
D7
Out of the mist your voice is calling, it's Twilight Time
G
Gm
When purple colored curtains
D
B9
mark the end of day
E9
A11
A9
I hear you, my dear at Twilight time
D
F#7
Deepening shadows gather splendor as day is done
Bm7
fingers of night will soon surrender
D7
the setting sun
G
Gm
I count the moments darling
D
B9
till you're here with me
E9
A7
D
together at last at twilight time
Check this out: eddysatriyamusiccorner.blogspot.com

Page 1

F#7
Here
in the after glow of day
Bm7
we keep our rendezvous
A#dim Bm
be-------neath
A#dim Bm
the
blue
E9
Here in the sweet and same old way
A9
G9
I fall in love again as
A7 A#7 A7
I did then
D
Deep in the dark your kiss will thrill me
F#7
like days of old
Bm7
lighting the spark of love that fills me
D7
with dreams untold
G
Gm
Each day I pray for evening
D
B9
just to be with you
E9
A7
D
together at last at Twilight Time (2x).

Check this out: eddysatriyamusiccorner.blogspot.com

Page 2

Add more chord diagrams to the list:
G9
x

E
B
G
D
A
E

|-1-|---|---|---|---|
|---|---|---|---|---|
|---|---|---|---|---|
|---|---|---|---|---|
|---|---|---|---|---|
|---|---|-2-|---|---|

o
o
o
o
o
o
Variation

Bm
x

E
B
G
D
A
E

|---|-2-|---|---|---|
|---|---|---|---|---|
|---|---|---|-3-|---|
|---|---|---|---|---|
|---|-1-|---|---|---|
|---|---|---|---|---|

o
o
o
o
o
x
Variation

A7
x

E
B
G
D
A
E

|---|---|---|---|---|
|---|-2-|---|---|---|
|---|---|---|---|---|
|---|-1-|---|---|---|
|---|---|---|---|---|
|---|---|---|---|---|

o
o
o
o
o
x
Variation

A#7
x

E
B
G
D
A
E

|-1-|---|---|---|---|
|-1-|---|-4-|---|---|
|-1-|---|---|---|---|
|-1-|---|-3-|---|---|
|-1-|---|---|---|---|
|---|---|---|---|---|

o
o
o
o
o
x

1 fr.
Variation

G6
x

E
B
G
D
A
E

|---|---|---|---|---|
|---|---|---|---|---|
|---|---|---|---|---|
|---|---|---|---|---|
|---|-1-|---|---|---|
|---|---|-2-|---|---|

o
o
o
o
o
o
Variation

A#dim
x

E
B
G
D
A
E

|---|---|---|---|---|
|---|-3-|---|---|---|
|---|---|---|---|---|
|---|-2-|---|---|---|
|-1-|---|---|---|---|
|---|---|---|---|---|

o
o
o
o
o
x

Check this out: eddysatriyamusiccorner.blogspot.com

Page 3

Variation

A9
x

E
B
G
D
A
E

|-1-|-2-|---|---|---|
|-1-|---|---|---|---|
|-1-|---|---|---|---|
|-1-|---|---|---|---|
|-1-|---|---|---|---|
|-1-|---|---|-3-|---|

o
o
o
o
o
o

2 fr.

Variation

A11
x

E
B
G
D
A
E

|-1-|---|-3-|---|---|
|-1-|---|---|---|---|
|-1-|-2-|---|---|---|
|-1-|---|---|---|---|
|-1-|---|---|---|---|
|-1-|---|---|---|---|

o
o
o
o
o
o

5 fr.
Variation

E9
x

E
B
G
D
A
E

|---|-3-|---|---|---|
|---|---|---|---|---|
|-1-|---|---|---|---|
|---|---|---|---|---|
|---|-2-|---|---|---|
|---|---|---|---|---|

o
o
o
o
o
o
Variation

B9
x

E
B
G
D
A
E

|-1-|-2-|---|---|---|
|-1-|---|---|---|---|
|-1-|---|---|---|---|
|-1-|---|---|---|---|
|-1-|---|---|---|---|
|-1-|---|---|-3-|---|

o
o
o
o
o
o

4 fr.

Variation

Gm
x

E
B
G
D
A
E

|---|---|-4-|---|---|
|---|---|-3-|---|---|
|---|---|---|---|---|
|---|---|---|---|---|
|-1-|---|---|---|---|
|---|---|-2-|---|---|

o
o
o
o
o
o
Variation

G
x

E
B
G
D
A
E

|---|---|-3-|---|---|
|---|---|---|---|---|
|---|---|---|---|---|
|---|---|---|---|---|
|---|-1-|---|---|---|
|---|---|-2-|---|---|

o
o
o
o
o
o
Variation

Check this out: eddysatriyamusiccorner.blogspot.com

Page 4

D7
x

E
B
G
D
A
E

|---|-3-|---|---|---|
|-1-|---|---|---|---|
|---|-2-|---|---|---|
|---|---|---|---|---|
|---|---|---|---|---|
|---|---|---|---|---|

o
o
o
o
x
x
Variation

Bm7
x

E
B
G
D
A
E

|---|-3-|---|---|---|
|---|---|---|---|---|
|---|-2-|---|---|---|
|---|---|---|---|---|
|---|-1-|---|---|---|
|---|---|---|---|---|

o
o
o
o
o
x
Variation

F#7
x

E
B
G
D
A
E

|-1-|---|---|---|---|
|-1-|---|---|---|---|
|-1-|-2-|---|---|---|
|-1-|---|---|---|---|
|-1-|---|-3-|---|---|
|-1-|---|---|---|---|

o
o
o
o
o
o

2 fr.

Variation

D
x

E
B
G
D
A
E

|---|-2-|---|---|---|
|---|---|-3-|---|---|
|---|-1-|---|---|---|
|---|---|---|---|---|
|---|---|---|---|---|
|---|---|---|---|---|

o
o
o
o
x
x
Variation

Check this out: eddysatriyamusiccorner.blogspot.com

Page 5

Related Interests