Let It Be Tab by Beatles, www.Ultimate-Guitar.

Com

>This is the famous song Let it Be, by the Beatles.
>
Paul McCartney sang and played bass and piano, and
>
George did the lead. Ringo did the drums. I don't
>
know what John played.
>
>VERSE:
>
>
C
G
Am
F
>|------------|------------|------------|------------|
>|------------|------------|------------|------------|
>|------------|------------|------------|------------|
>|------------|------------|------------|------------|
>|------------|------------|------------|------------|
>|------------|------------|------------|------------|
>
>
>
C
G
F Em Dm
C
>|------------|------------|---|---|---|-------------|
>|------------|------------|---|---|---|-------------|
>|------------|------------|---|---|---|-------------|
>|------------|------------|---|---|---|-------------|
>|------------|------------|---|---|---|-------------|
>|------------|------------|---|---|---|-------------|
>
>
>CHORUS:
>
>
Am
Am/G
F
C
>|------------|------------|------------|------------|
>|------------|------------|------------|------------|
>|------------|------------|------------|------------|
>|------------|------------|------------|------------|
>|------------|------------|------------|------------|
>|------------|------------|------------|------------|
>
>
>
C
G
F Em Dm
C
>|------------|------------|---|---|---|-------------|
>|------------|------------|---|---|---|-------------|
>|------------|------------|---|---|---|-------------|
>|------------|------------|---|---|---|-------------|
>|------------|------------|---|---|---|-------------|
>|------------|------------|---|---|---|-------------|
>
>
>|----5------3--1----0--------------------------|
>|----6------5--3----1------3--1--0-------------|
>|--------------------------4--2--0-------------|
>|--------------------------------------2---0---|
>|--------------------------------------3---2---|
>|----------------------------------------------|
>
>
>LEAD:
>

>|----------------------------------------------------------------|
>|----------------------------------------------------------------|
>|---5----5-------------------------------------5---7b---7br---5--|
>|---5h7--5-------------------5--5-----5---5h7--------------------|
>|------------7\5---3---3/7---------7-----------------------------|
>|----------------------------------------------------------------|
>
>|--------8------------------5------------------------------------|
>|---------------------------5------------------------------------|
>|--7/9------9\7---5h7---7b-----7br---5---------------------------|
>|---------------------------------------7h5---7h5----------------|
>|--------------------------------------------------7\5--3h5--3---|
>|----------------------------------------------------------------|
>
>|--------------------------------------------------------8--10b--|
>|---------------------------8-------8-------8--10--8h10----------|
>|--------5--5------5---7/9-----7/9-----7/9-----------------------|
>|---5h7---------7------------------------------------------------|
>|----------------------------------------------------------------|
>|----------------------------------------------------------------|
>
>|--10br---8h10--8----8--15b--------------------------------------|
>|------------------------------15br---13--15---15br---13h15--13--|
>|----------------------------------------------------------------|
>|----------------------------------------------------------------|
>|----------------------------------------------------------------|
>|----------------------------------------------------------------|
>
>
========================
>
>
>
Let It Be
Beatles
>From the Let It Be Album
>
>
>Easy melody Version
>
>
C
G
Am
G Fmaj7
>e|--------------|----------------|---------0---0-|-0------------|
>B|--------------|----------------|-1---3---1---1-|-1--3--3-----1|
>G|-0---0--0---0-|-2------0-----0-|-0-------------|----4--2------|
>D|--------2-----|-----2----------|---------------|-------2------|
>A|--------------|--------2-------|---------------|--------------|
>E|--------------|----------------|---------------|--------------|
> When I find my-self in times of trou-ble Moth-er Ma-ry comes to
>
>
F
C
G
F C
Dm7 C
>e|-----0-----0----1---|-0-0-------0--|--------------|------------->B|-1------------------|---0---3------|-3-3-----1----|------------->G|-2---0-----0----2---|-0-----4------|------------0-|------------->D|-3------------------|--------------|--------------|--3---2------>A|--------------------|--------------|--------------|------------->E|--------------------|--------------|--------------|------------->
me, Speak-ing words of wis-dom let it be ------>

>
C
G
Am
G
F
>e|--------------|----------------|---------0---0----|--------------|
>B|--------------|-1------------1-|-3--3----1---1----|-3--3----1--1-|
>G|-0---0--0---0-|-2--0---0-----0-|----4-------------|-4--2----2--2-|
>D|--------2-----|-3--------------|------------------|--------------|
>A|--------------|----2-----------|------------------|--------------|
>E|--------------|----------------|------------------|--------------|
> And in my hour of dark-ness She is stand-ing right in front of me
>
>
C
G
F
C Dm7
C
>e|-0-----0----1----0-|-0-------0----|----------------|--------->B|-------------------|-0---3------3-|-3-----1--------|--------->G|-0-----0----2----0-|-----4--------|----------0-----|--------->D|-------------------|--------------|--------------3-|--2------>A|-------------------|--------------|----------------|--------->E|-------------------|--------------|----------------|--------->
Speak-ing words of wis-dom let it be ------>
>
G
Am7
G
F
C
>e|-0------------|-0---3--5---5-3-|-3--3--0--0--|--------------|-0----------->B|----3--1---1--|-1----------0---|-0-----------|-3--1---------|----1-------->G|-0---------2--|----------------|-------------|----2---2---0-|-0----------->D|--------------|----------------|-------------|--------------|----2-------->A|--------------|----------------|-------------|--------------|------------->E|--------------|----------------|-------------|--------------|-------------> Let it be, ---- Let it be, ---- Let it be, ---Let it be, --->
>
G
F
C
Dm7 C
>e|-0----0---1-----0-|-0-------0-----|--------------|--------------|
>B|------------------|-0--3--------3-|-3--1---------|--------------|
>G|-0----0---2-----0-|----4----------|--------0-----|--------------|
>D|------------------|---------------|------------3-|--2-----------|
>A|------------------|---------------|--------------|--------------|
>E|------------------|---------------|--------------|--------------|
>
Whis-per words of wis-dom, let it be

>
>

F

Em Dm C

Bb F

G

F

C

F

C

G

F

C

G

F

G

C

>e|-5--3--1--0-|----------1-|-0----------|0----------|------------|----------||
>B|----0-------|-3--1--3----|----1--1--3-|----3--1----|-1--1--0--1-|-3---1---||
>G|-5-----2--0-|-------4--2-|-0--2--2----|-0--------0-|-2-----0--2-|4--------||
>D|------------|-3--3-------|------------|-------2--0-|----2-------|-----2---||
>A|------------|------------|------------|------------|------------|---------||
>E|------------|------------|------------|------------|------------|---------||
>
>
>
>

>