You are on page 1of 7

The Promentory theme from the Last of the Mohicans by Trevor Jones.

Arranged for
guitar from violin. D minor
e|-------------1----0------0-----------------------|-------------1-------
B|---------------------3--------3--1---3----1------|---------------------
G|-2----3--2-----------------------------------0---|-2----3--2-----------
D|-------------------------------------------------|---------------------
A|-------------------------------------------------|---------------------
E|-------------------------------------------------|---------------------
1 2

0------0-----------------------|-------------0-------0---3----0--0------
---3--------3--1---3----1------|-1----3--1--------3---------------------
---------------------------0---|----------------------------------------
-------------------------------|----------------------------------------
-------------------------------|----------------------------------------
-------------------------------|----------------------------------------
3

0-------0---|-------------0-------0---3----0--0---0-------0---|-1-------
-----3------|-1----3--1--------3-----------------------3------|---------
------------|-------------------------------------------------|---------
------------|-------------------------------------------------|---------
------------|-------------------------------------------------|---------
------------|-------------------------------------------------|---------
4 5

3--1---1----3--1---1----3--1---1----0------|-0----1--0---0----1--0------
---------------------------------------3---|----------------------------
-------------------------------------------|----------------------------
-------------------------------------------|----------------------------
-------------------------------------------|----------------------------
-------------------------------------------|----------------------------
6

0----1--0---0-----------|------0-----------0------1----0------0---------
-----------------3--1---|-3-------3---3-------3-----------3--------3----
------------------------|-----------------------------------------------
------------------------|-----------------------------------------------
------------------------|-----------------------------------------------
------------------------|-----------------------------------------------
7

----|------0-----------0------1----0------0-----------|-----------------
1---|-3-------3---3-------3-----------3--------3--1---|-----------------
----|-------------------------------------------------|-2----3--2-------
----|-------------------------------------------------|-----------------
----|-------------------------------------------------|-----------------
----|-------------------------------------------------|-----------------
8 9

1----0------0-----------------------|--------------1----0------0--------
--------3--------3--1---3----1------|----------------------3--------3---
--------------------------------0---|--2----3--2------------------------
------------------------------------|-----------------------------------
------------------------------------|-----------------------------------
------------------------------------|-----------------------------------
10

----------------|--------------0-------0---3----0--0---0-------0---|----
1---3----1------|--1----3--1--------3-----------------------3------|----
------------0---|--------------------------------------------------|----
----------------|--------------------------------------------------|----
----------------|--------------------------------------------------|----
----------------|--------------------------------------------------|----
11 12

------------0-------0---3----0--0---0-------0---|--1----3--1---1----3---
1----3--1--------3-----------------------3------|-----------------------
------------------------------------------------|-----------------------
------------------------------------------------|-----------------------
------------------------------------------------|-----------------------
------------------------------------------------|-----------------------
13

1---1----3--1---1----0------|--0----1--0---0----1--0---0----1--0--------
------------------------3---|-------------------------------------------
----------------------------|-------------------------------------------
----------------------------|-------------------------------------------
----------------------------|-------------------------------------------
----------------------------|-------------------------------------------
14

0-----------|-------0-----------0------1----0------0-----------|--------
-----3--1---|--3-------3---3-------3-----------3--------3--1---|--3-----
------------|--------------------------------------------------|--------
------------|--------------------------------------------------|--------
------------|--------------------------------------------------|--------
------------|--------------------------------------------------|--------
15 16

0-----------0------1----0------0-----------|--------------1----0--------
---3---3-------3-----------3--------3--1---|----------------------3-----
-------------------------------------------|--2----3--2-----------------
-------------------------------------------|----------------------------
-------------------------------------------|----------------------------
-------------------------------------------|----------------------------
17

0-----------------------|--------------1----0------0--------------------
-----3--1---3----1------|----------------------3--------3--1---3----1---
--------------------0---|--2----3--2------------------------------------
------------------------|-----------------------------------------------
------------------------|-----------------------------------------------
------------------------|-----------------------------------------------
18

----|--------------0-------0---3----0--0---0-------0---|----------------
----|--1----3--1--------3-----------------------3------|--1----3--1-----
0---|--------------------------------------------------|----------------
----|--------------------------------------------------|----------------
----|--------------------------------------------------|----------------
----|--------------------------------------------------|----------------
19 20

0-------0---3----0--0---0-------0---|--1----3--1---1----3--1---1----3---
-----3-----------------------3------|-----------------------------------
------------------------------------|-----------------------------------
------------------------------------|-----------------------------------
------------------------------------|-----------------------------------
------------------------------------|-----------------------------------
21

1---1----0------|--0----1--0---0----1--0---0----1--0---0-----------|----
------------3---|-------------------------------------------3--1---|----
----------------|--------------------------------------------------|----
----------------|--------------------------------------------------|----
----------------|--------------------------------------------------|----
----------------|--------------------------------------------------|----
22 23

-----0-----------0------1----0------0-----------|-------0-----------0---
3-------3---3-------3-----------3--------3--1---|--3-------3---3--------
------------------------------------------------|-----------------------
------------------------------------------------|-----------------------
------------------------------------------------|-----------------------
------------------------------------------------|-----------------------
24

----1----0------0-----------|-----------------------1----0------0-------
3-----------3--------3--1---|-------------------------------3-----------
----------------------------|--2-------------3--2-----------------------
----------------------------|-------------------------------------------
----------------------------|-------------------------------------------
----------------------------|-------------------------------------------
25

-------------------|-----------------------1----0------0----------------
3--1---3----1------|-------------------------------3--------3--1--------
---------------0---|--2-------------3--2--------------------------------
-------------------|----------------------------------------------------
-------------------|----------------------------------------------------
-------------------|----------------------------------------------------
26

------------|-----------------------0-------0---3----0--0---0-----------
3----1------|--1-------------3--1--------3-----------------------3------
--------0---|-----------------------------------------------------------
------------|-----------------------------------------------------------
------------|-----------------------------------------------------------
------------|-----------------------------------------------------------
27

0---|-----------------------0-------0---3----0--0---0-------0---|-------
----|--1-------------3--1--------3-----------------------3------|-------
----|-----------------------------------------------------------|-------
----|-----------------------------------------------------------|-------
----|-----------------------------------------------------------|-------
----|-----------------------------------------------------------|-------
28 29

1-------------3--1---1----3--1---1----3--1---1----0------|--------------
-----------------------------------------------------3---|--------------
---------------------------------------------------------|--------------
---------------------------------------------------------|--------------
---------------------------------------------------------|--------------
---------------------------------------------------------|--------------
30

0-------------1--0---0----1--0---0----1--0---0-----------|--------------
--------------------------------------------------3--1---|--------------
---------------------------------------------------------|--------------
---------------------------------------------------------|--------------
---------------------------------------------------------|--------------
---------------------------------------------------------|--------------
31

--------------0-----------0------1----0------0-----------|--------------
3----------------3---3-------3-----------3--------3--1---|--------------
---------------------------------------------------------|--------------
---------------------------------------------------------|--------------
---------------------------------------------------------|--------------
---------------------------------------------------------|--------------
32

--------------0-----------0------1----0--1--3--5---7--8----10-12--------
3----------------3---3-------3---3----------5--3------------------------
------------------------------------------------------9-----------------
-----------------------------------------------------------------12-----
------------------------------------------------------------------------
------------------------------------------------------------------------

----|----------------------------0------0-----------------------|-------
----|----------------------------------------3--1---3----1------|-------
----|-----------------------10------7-----------------------0---|-------
10--|-----------------------------------------------------------|-------
----|--12------------13-12--------------------------------------|-------
----|-----------------------------------------------------------|-------
33 34

---------------------1----0------0-----------------------|--------------
-----------------------------3--------3--1---3----1------|--------------
2-------------3--2-----------------------------------0---|--------------
---------------------------------------------------------|--------------
---------------------------------------------------------|--------------
---------------------------------------------------------|--------------
35

---------------------0-------0---3----0--0---0-------0---|--------------
1-------------3--1--------3-----------------------3------|--------------
---------------------------------------------------------|--------------
---------------------------------------------------------|--------------
---------------------------------------------------------|--------------
---------------------------------------------------------|--------------
36

---------------------0-------0---3----0--0---0-------0---|--------------
1-------------3--1--------3-----------------------3------|--------------
---------------------------------------------------------|--------------
---------------------------------------------------------|--------------
---------------------------------------------------------|--------------
---------------------------------------------------------|--------------
37

1-------------3--1---1----3--1---1----3--1---1----0------|--------------
-----------------------------------------------------3---|--------------
---------------------------------------------------------|--------------
---------------------------------------------------------|--------------
---------------------------------------------------------|--------------
---------------------------------------------------------|--------------
38

0-------------1--0---0----1--0---0----1--0---0-----------|--------------
--------------------------------------------------3--1---|--------------
---------------------------------------------------------|--------------
---------------------------------------------------------|--------------
---------------------------------------------------------|--------------
---------------------------------------------------------|--------------
39

--------------0-----------0------1----0------0-----------|--------------
3----------------3---3-------3-----------3--------3--1---|--------------
---------------------------------------------------------|--------------
---------------------------------------------------------|--------------
---------------------------------------------------------|--------------
---------------------------------------------------------|--------------
40
10------------17----17----|--13------------------------|----------------
--------------18----18----|--15------------18----18----|----------------
--------------------------|----------------19----17----|----------------
--------------------------|----------------------------|----------------
--------------------------|----------------------------|----------------
--------------------------|----------------------------|----------------
41 42

17------------17----17----|-------------------8-----|-------------------
18------------18----17----|--18---------18----------|-------------------
--------------------------|--19---------19----------|-------------------
19------------------------|-------------------------|-------------------
--------------------------|-------------------------|-------------------
--------------------------|-------------------------|-------------------
43 44

17----19----|--17------------15----17----|--17------------15------------
18----------|----------------------18----|--17--------------------------
------------|----------------------------|------------------------------
------------|----------------------------|------------------------------
------------|----------------------------|------------------------------
------------|----------------------------|------------------------------
45 46

------|--------------------17----------------|-------------------0------
16----|--16----------------15----------------|--------------------------
------|--------------------------------------|--------------------------
------|--------------------------------------|--------------15----------
------|--------------------------------------|--------------------------
------|--------------------------------------|--17---18-17--------------
47 48

----0-----------------------|--------------1----0------0----------------
---------3------3----1------|----------------------3--------3--1--------
------------5-----------0---|--2----3--2--------------------------------
12--------------------------|-------------------------------------------
----------------------------|-------------------------------------------
----------------------------|-------------------------------------------
49

------------|--------------1----0------0-----------------------|--------
3----1------|----------------------3--------3--1---3----1------|--------
--------0---|--2----3--2-----------------------------------0---|--2-----
------------|--------------------------------------------------|--------
------------|--------------------------------------------------|--------
------------|--------------------------------------------------|--------
50 51

-------1----0------0-----------------------|--------------1----0--------
---------------3--------3--1---3----1------|----------------------3-----
3--2-----------------------------------0---|--2----3--2-----------------
-------------------------------------------|----------------------------
-------------------------------------------|----------------------------
-------------------------------------------|----------------------------
52

0-----------------------|-------e
-----3--1---3----1------|-------B
--------------------0---|--2----G
------------------------|-------D
------------------------|-------A
------------------------|-------E
53