I Believe (My Sassy Girlfriend

)
Intro
|--0------------------------------2--7-------------------------------------|
|----0-----3-------0h1r0----------3--5---------0--0h1-3/1-------0-0h1-3/1--|
|------2-0---0---0-------0-----0--2--5-------0----------------0------------|
|--------------0-----------2h3----0--5-----0------0h2-4/2---0-----0h2-4/2--|
|--3-------2-------0-0-0-------------5-------------------------------------|
|----------------------------------------3----------------3----------------|

Verse
G

D/F#

C

G

Em

Am7

G/B

Am7

G

Em

G

Am7

G/B

E

Am7

Am/G

G

Am7

G/B

B7

Em

Em/D

C

D

Am7

D

(x2)

Pre-chorus
C

Am7

Chorus
C

D
Em/C#

|--0------------------------------2--7-------------------------------------|
|----0-----3-------0h1r0----------3--5---------0--0h1-3/1-------0-0h1-3/1--|
|------2-0---0---0-------0-----0--2--5-------0----------------0------------|
|--------------0-----------2h3----0--5-----0------0h2-4/2---0-----0h2-4/2--|
|--3-------2-------0-0-0-------------5-------------------------------------|
|-----------------------------------------------------------------------------3---------------------------------3-------------------------------|

Bridge
C

C

B7

B7

Em

D

Bm

B7

Em

D#dim

D#dim

D

C

Em

Am7

D

Am7

(Repeat Chorus)
Ending (Play as per intro)
C

G/B

Am7

Am-G

G

Am-G

D

Em
G

Em/D#

G

Sign up to vote on this title
UsefulNot useful