Contents

Album Name

Page Number

Hot Fuss
Sam’s Town
Sawdust
Day and Age

2
25
46
70

If it says ‘No Bass’ it
might be I can't find a
copy or work it out.
SORRY!! But this is a
rare problem.

2

Hot Fuss

Song Name

Page Number

1.Jenny Was a Friend
2.Mr Brightside
3.Smile Like You Mean It
4.Somebody Told Me
5.All These Things That I’ve Done
6.Andy, You’re A Star
7.On Top
8.Change Your Mind
9.Believe Me Natalie
10. Midnight Show
11.Everything Will Be Alright

3
6
8
10
13
15
16
18
19
22
23

2

3

1.Jenny Was A Friend of Mine
Tuning: Standard (E A D G)
This is the eighth bar, and the bass comes in:
Verse
e S S Q
E S S E E e e Q
E S S S S E e e E E
|------11-11-11-11--|-----------8-10-11--|----------------------|
|-------------------|--------------------|---------------9-8----|
|-------------------|-6-6-6-6-6----------|-4-4-4-4-4-4-4-----9--|
|-------------------|--------------------|----------------------|

E S S S S E Q.
S S
E S S E E Q E E
|----------------------|--------------------|
|----------------------|--------------------|
|----------------------|------------9--8----|
|-8-8-8-8-7-7-8----7-7-|-8-8-8-8-10------10-|

E S S E E e e Q
E S S S S E e e E E
|-----------8-10-11--|---------------------|
|--------------------|---------------9-8---|
|-6------------------|-4-4-4-4-4-4-4-----9-|
|---0-0-0-0----------|---------------------|

E S S S S E Q.
S S
E S S E E Q E E
|----------------------|--------------------|
|----------------------|--------------------|
|----------------------|------------9--8----|
|-8-8-8-8-7-7-8----7-7-|-8-8-8-8-10------10-|

E S S E E e e Q
E S S S S E e e E E
|-----------8-10-11--|------------------------|
|--------------------|---------------9-8------|
|-6------------------|-4-4-4-4-4-4-4-----9----|
|---0-0-0-0----------|------------------------|

E S S S S E Q.
S S
E S S E E Q E E
|----------------------|--------------------|
|----------------------|--------------------|
|----------------------|------------9--8----|
|-8-8-8-8-7-7-8----7-7-|-8-8-8-8-10------10-|

E S S E E e e Q
E S S S S E e e E E
|-----------8-10-11--|------------------------|
|--------------------|---------------9-8------|
|-6------------------|-4-4-4-4-4-4-4-----9----|
|---0-0-0-0----------|------------------------|

E S S S S E Q.
S S
E S S E E Q E E
|----------------------|--------------------|
|----------------------|--------------------|
|----------------------|------------9--8----|
|-8-8-8-8-7-7-8----7-7-|-8-8-8-8-10------10-|

3

4
E S S E E e e Q
E S S S S E e e E E
|------------------|---------------------|
|------------------|---------------9-8---|
|-6----------------|-4-4-4-4-4-4-4-----9-|
|---0-0-0-0-0-2-3--|---------------------|

E S S S S E Q.
S S
E S S E E Q E E
|----------------------|--------------------|
|----------------------|--------------------|
|----------------------|------------9--8----|
|-8-8-8-8-7-7-8----7-7-|-8-8-8-8-10------10-|

E S S E E e e Q
E S S S S E e e E E
|-----------8-10-11--|------------------------|
|--------------------|---------------9-8------|
|-6------------------|-4-4-4-4-4-4-4-----9----|
|---0-0-0-0----------|------------------------|

E S S S S E Q.
S S
E S S E E H
|----------------------|-----------------|
|----------------------|-----------------|
|----------------------|-----------------|
|-8-8-8-8-7-7-8----7-7-|-8-8-8-8-8-10----|

Pre-chorus
E S S E S S E S S E S S
E S S E S S E S S E S S
|-------------------------|--------------------------------------|
|-------------------------|--------------------------------------|
|-------------------------|--------------------------------------|
|-8-8-8-8-8-8-8-8-8-8-8-8-|-10-10-10-10-10-10-10-10-10-10-10-10--|

E S S E S S E S S E S S
E S S E S S E S S E S S
|-------------------------|-------------------------|
|-------------------------|-8-8-8-8-8-8-8-8-8-8-8-8-|
|-6-6-6-6-6-6-6-6-6-6-6-6-|-------------------------|
|-------------------------|-------------------------|

E S S E S S E S S E S S
E S S E S S E S S E S S
|-------------------------|--------------------------------------|
|-------------------------|--------------------------------------|
|-------------------------|--------------------------------------|
|-8-8-8-8-8-8-8-8-8-8-8-8-|-10-10-10-10-10-10-10-10-10-10-10-10--|

Chorus
E E E E E E E E
E E E E E E E E
E E E E E E E E
E E E E
H
|-----------------|---------------------|-----------------|--------------------|
|-----------------|---------------------|-----------------|-------------/11----|
|-9-9-9-9-8-8-8-8-|-6-6-6-6-------------|-----------------|--------------------|
|-----------------|---------10-10-10-10-|-8-8-8-8-8-8-8-8-|-10-10-10-10--------|
Then repeat verse and pre-chorus
Then play the chorus, but with this in the last bar instead:

E E E E E E E E
|-------------------------|
|-------------------------|
|-------------------------|
|-10-10-10-10-10-10-10-10-|

4

5
Then play first two bars of pre-chorus, followed by the first chorus.
Then immediately play this, followed by six bars of rest:
Interlude
W
|-----------|
|-----------|
|-----------|
|-12--------|
After the rests, play:
H
E E Q
--------11-11--|
---------------|
---------------|
---------------|
Then repeat the verse once more, and end with
W
|-----------|
|-----------|
|-----------|
|-12--------|

Duration Legend
--------------W = whole; H = half; Q = quarter; E = 8th; S = 16th;
+ = note tied to previous; . = note dotted
Un-capitalized letters represent notes that are staccato (1/2 duration)
Duration letters will always appear directly above the note/fret number it represents
the
duration for. Duration letters with no fret number below them represent rests.

5

6

2.Mr Brightside
Tuning: Standard (E A D G)
Verse:
G|------------------------------------------------------------------|
D|------------------------------------------------------------------| x2
A|--4-4-4-4-4-4-4-4-3-3-3-3-3-3-3-3---------------------------------|
E|----------------------------------2-2-2-2-2-2-2-2-2-2-2-2-2-2-2-2-|
G|-------------------------------------------------------------------|
D|-------------------------------------------------------------------| x1
A|--4-4-4-4-4-4-4-4-3-3-3-3-3-3-3-3/9-9-9-9-9-9-9-9-9-9-9-9-9-9-9-9--|
E|-------------------------------------------------------------------|
Pre-Chorus:
G|-------------------------------------------------------------------------|
D|-------------------------------------------------------------------------|
A|------------/8-6-4-----------/8-6-4------------/6-4-3----------/1-3-4----|
E|--6-6-6-6-----------4-4-4-4------------2-2-2-2----------2-2-2-2----------|
G|-------------------------------------------------------------------------------------|
D|-------------------------------------------------------------------------------------|
A|-----------/8--6-4---------8--6-4------------------------------------------------9 x6|
E|--6-6-6-6----------4-4-4-4---------1h2-2-2-2-2-2-2-1h2-2-2-2-2-2-2-1h2-2-2-1h2-2-2---|

Chorus:
G|-------------------------------------------------------------------|
D|------------------4-4-4-4-4-4-4-4----------------------------------| x2
A|--4-4-4-4-4-4-4-4--------------------------------------------------|
E|----------------------------------6-6-6-6-6-6-6-6-4-4-4-4-4-4-4-4--|
G|-------------------------------------------------------------------|
D|-------------------------------------------------------------------|
A|--4-4-4-4-4-4-4-4--------------------------------------------------|
E|------------------2-2-2-2-2-2-2-2-6-6-6-6-6-6-6-6-4-4-4-4-4-4-4-4--|
G|-------------------------------------------------------------------|
D|------------------4-4-4-4-4-4-4-4/8-8-8-8-8-8-8-8-6-6-6-6-6-6-6-6--|
A|--4-4-4-4-4-4-4-4--------------------------------------------------|
E|-------------------------------------------------------------------|
G|-------------------------------------------------------------------|
D|------------------4-4-4-4-4-4-4-4----------------------------------| x2
A|--4-4-4-4-4-4-4-4--------------------------------------------------|
E|----------------------------------6-6-6-6-6-6-6-6-4-4-4-4-4-4-4-4--|
Verse:
G|-------------------------------------------------------------------|
D|-------------------------------------------------------------------|
A|--4-4-4-4-4-4-4-4-3-3-3-3-3-3-3-3----------------------------------|
E|----------------------------------2-2-2-2-2-2-2-2-2-2-2-2-2-2-2-2--|
G|------------------------------------------|
D|------------------------------------------|
A|--4-4-4-4-4-4-4-4-3-3-3-3-3-3-3-3---------|
E|----------------------------------2----\\-|

6

7
G|-------------------------------------------------------------------|
D|-------------------------------------------------------------------|
A|--4-4-4-4-4-4-4-4-3-3-3-3-3-3-3-3----------------------------------|
E|----------------------------------2-2-2-2-2-2-2-2-2-2-2-2-2-2-2-2--|
G|-------------------------------------------------------------------|
D|-------------------------------------------------------------------|
A|--4-4-4-4-4-4-4-4-3-3-3-3-3-3-3-3/9-9-9-9-9-9-9-9-9-9-9-9-9-9-9-9--|
E|-------------------------------------------------------------------|
Pre-Chorus:
G|-------------------------------------------------------------------------|
D|-------------------------------------------------------------------------|
A|------------/8-6-4-----------/8-6-4------------/6-4-3----------/1-3-4----|
E|--6-6-6-6-----------4-4-4-4------------2-2-2-2----------2-2-2-2----------|
G|-------------------------------------------------------------------------------------|
D|-------------------------------------------------------------------------------------|
A|-----------/8--6-4---------8--6-4------------------------------------------------9 x6|
E|--6-6-6-6----------4-4-4-4---------1h2-2-2-2-2-2-2-1h2-2-2-2-2-2-2-1h2-2-2-1h2-2-2---|
Chorus:
G|-------------------------------------------------------------------|
D|------------------4-4-4-4-4-4-4-4----------------------------------| x2
A|--4-4-4-4-4-4-4-4--------------------------------------------------|
E|----------------------------------6-6-6-6-6-6-6-6-4-4-4-4-4-4-4-4--|
G|-------------------------------------------------------------------|
D|-------------------------------------------------------------------|
A|--4-4-4-4-4-4-4-4--------------------------------------------------|
E|------------------2-2-2-2-2-2-2-2-6-6-6-6-6-6-6-6-4-4-4-4-4-4-4-4--|
G|-------------------------------------------------------------------|
D|------------------4-4-4-4-4-4-4-4/8-8-8-8-8-8-8-8-6-6-6-6-6-6-6-6--|
A|--4-4-4-4-4-4-4-4--------------------------------------------------|
E|-------------------------------------------------------------------|
Interlude:
G|--10---4---4---3---|
D|-------------------| x2
A|-------------------|
E|-------------------|
Chorus:
G|-------------------------------------------------------------------|
D|------------------4-4-4-4-4-4-4-4----------------------------------| x2
A|--4-4-4-4-4-4-4-4--------------------------------------------------|
E|----------------------------------6-6-6-6-6-6-6-6-4-4-4-4-4-4-4-4--|
G|-------------------------------------------------------------------|
D|-------------------------------------------------------------------|
A|--4-4-4-4-4-4-4-4--------------------------------------------------|
E|------------------2-2-2-2-2-2-2-2-6-6-6-6-6-6-6-6-4-4-4-4-4-4-4-4--|
G|-----------------------------------------------------------|
D|------------------4-4-4-4-4-4-4-4/8-8-8-8-8-8-8-8-6--------|
A|--4-4-4-4-4-4-4-4------------------------------------6-----|
E|--------------------------------------------------------4--|

7

8

3.Smile Like You Mean It
Tuning: Standard (E A D G)
Intro (x2)
G|---------------------------------------------------------------------------|
D|----------8-8-8------------------------------------------------------------|
A|-9-9-9-9-9-----------------------------------------------------------------|
E|----------------9-9-9-9-9-9-9-11-11-11-11-11-9--11--11-11-11-11-11-11-11---|
Verse (repeat x2)
Break (play this immediately, and immediately returns to verse again x2)
G|--------|
D|--------|
A|--------|
E|-7--7---|
Chorus (x2)
G|------------------------------------------|
D|------------------------------------------|
A|-----------------9-99998-888888-----------|
E|-66666667-777777--------------------------|
Verse (x1)
Play this in the second repetition’s place
G|---------------------------------------------------------------------------|
D|----------8-8-8------------------------------------------------------------|
A|-9-9-9-9-9-----------------------------------------------------------------|
E|---------------9-9-9-9-9-9-9-11-11-11-11-11-9--7-7-7-7-6-7-6-6-7-7-7-7-7---|
(Continued)
G|--------|
D|--------|
A|--------|
E|-7-7----|
Break
Verse (x2)
Chorus
Bridge (x2)
G|---------------------------------------------------------------------------|
D|---------------------------------------------------------------------------|
A|---------------------------------------------------------------------------|
E|-9-9-9-9-9-9-911--11-11-11-11-11-11-11-7--7-7-7-76--7--7-7-7-7-7-7-7-------|
Then....(x2)
G|---------------------------------------------------------------------------|
D|---------------------------------------------------------------------------|
A|-11-11-11-11-11-11--11--11-11-11-11-11-11-11-------------------------------|
E|---------------------------------------------11-11-11-11-11--9--11--11-11--|
(Continued)
G|---------------------------------------------------------------------------|
D|---------------------------------------------------------------------------|
A|---------------------------------------------------------------------------|
E|-11-9-11-9-11--------------------------------------------------------------|
Then
G|---------------------------------------------------------------------------|
D|---------------------------------------------------------------------------|
A|--------------16--16-16-16-16-16-16----------------------------------------|
E|-9--9-9-9-9-9--------------------------------------------------------------|
Chorus (x4)
Verse (x2)

8

9
Outro
G|---------------------------------------------------------------------------|
D|--------8-8-8--------------------------------------------------------------|
A|-9-9-9---------------------------------------------------------------------|
E|--------------9-9-9--9-9-9-11-11-11--9-9-9-11-11-11--11-11-11--------------|
G|---------------------------------------------------------------------------|
D|---------------------------------------------------------------------------|
A|---------------------------------------------------------------------------|
E|-11~-6~-0~~~---------------------------------------------------------------|
| / slide up
| \ slide down
| h hammer-on
| p pull-off
| ~ vibrato
| + harmonic
| x Mute note

9

10

4.Somebody Told Me
********* All Strings are Half Note Down ***************
******************* Gb Db Ab Eb ************************
Intro
Gb|-----16-16----14-14---12---12-11---11-11-------16-16----------------|
Db|-----------------------------------------12-------------------------|
Ab|--14-------14-------------------------------14----------------------|
Eb|--------------------------------------------------------------------|
Gb|----------------------12---12-12-11-12-12-12-11---------------------|
Db|--14-14-14---12-12--------------------------------------------------|
Ab|------------------------------------------------14p12h14------------|
Eb|--------------------------------------------------------------------|
1st Verse
Gb|---------------------------------------------------------------------|
Db|---------------------------------------------------------------------|
Ab|------------------------9---7-7-----7---7/10---10-10-9-10-10-10-9----|
Eb|---------------------------------0-0---0-----------------------------|
Gb|--------------------------------------------------------------------|
Db|----------------------------9p7h9-----------------------------------|
Ab|--------------------------------------------------------------------|
Eb|--7-7-7-7-7-7-7-7-7-7-7-7-7-------7-7-7-7-7-7-7-7-7-7-7-7-7-5-7-5---|
Gb|--------------------------------------------------------------------------|
Db|------------------------------4-4-----------------------------------------|
Ab|----------------------4-4-5-5-----7-7-----7---7/10---10-10-9-10-10-10-9---|
Eb|--7-7-7-7-7-7-7-7-7-7-----------------0-0---0-----------------------------|
Gb|--------------------------------------------------------------------|
Db|----------------------------9p7h9-----------------------------------|
Ab|------------------------------------------------------4-4-5-5-4-4---|
Eb|--7-7-7-7-7-7-7-7-7-7-7-7-7-------7-7-7-7-7-7-7-7-7-7---------------|
Pre-Chorus
Gb|--------------------------------------------------------------------|
Db|----------------------------------------------------789--7-9-7-9----|
Ab|--------------------------------------------------------------------|
Eb|--3-3-3-3-3-3-3-3-5-5-5-5-5-5-5-5-7-7---5-7-7---5-7-----------------|
Gb|--------------------------------------------------------------------|
Db|--------------------------------------------------------------------|
Ab|--------------------------------------------------------------------|
Eb|--3-3-3-3-3-3-3-3-5-5-5-5-5-5-5-5-----------------------------------|
1st Chorus
Gb|---------9---11----------11---9----------7---9----------7---6-------|
Db|--------------------------------------------------------------------|
Ab|-------------------------------------------------0------------------|
Eb|--577-------------233-------------355-------------22----------------|
Gb|---------9---11----------11---9----------7---9----------------------|
Db|--------------------------------------------------------------------|
Ab|--------------------------------------------------------------------|
Eb|--577-------------233-------------355-------------------------------|
2nd Verse
Gb|--------------------------------------------------------------------|
Db|----------------------------9p7h9-----------------------------4-4---|
Ab|------------------------------------------------------4-4-5-5-------|
Eb|--7-7-7-7-7-7-7-7-7-7-7-7-7-------7-7-7-7-7-7-7-7-7-7---------------|

10

11
Gb|------------------------------------------|
Db|------------------------------------------|
Ab|--7-7-----7---7/10---10-10-9-10-10-10-9---|
Eb|------0-0---0-----------------------------|
Gb|--------------------------------------------------------------------|
Db|----------------------------9p7h9-----------------------------------|
Ab|--------------------------------------------------------------------|
Eb|--7-7-7-7-7-7-7-7-7-7-7-7-7-------7-7-7-7-7-7-7-7-7-7-7-7-7-5-7-5---|
Gb|--------------------------------------------------------------------------|
Db|------------------------------4-4-----------------------------------------|
Ab|----------------------4-4-5-5-----7-7-----7---7/10---10-10-9-10-10-10-9---|
Eb|--7-7-7-7-7-7-7-7-7-7-----------------0-0---0-----------------------------|
Gb|--------------------------------------------------------------------|
Db|----------------------------9p7h9-----------------------------------|
Ab|------------------------------------------------------4-4-5-5-4-4---|
Eb|--7-7-7-7-7-7-7-7-7-7-7-7-7-------7-7-7-7-7-7-7-7-7-7---------------|
Pre-Chorus
Gb|--------------------------------------------------------------------|
Db|----------------------------------------------------789--7-9-7-9----|
Ab|--------------------------------------------------------------------|
Eb|--3-3-3-3-3-3-3-3-5-5-5-5-5-5-5-5-7-7---5-7-7---5-7-----------------|
Gb|--------------------------------------------------------------------|
Db|--------------------------------------------------------------------|
Ab|--------------------------------------------------------------------|
Eb|--3-3-3-3-3-3-3-3-5-5-5-5-5-5-5-5-----------------------------------|
2nd Chorus
Gb|---------9---11----------11---9----------7---9----------7---6-------|
Db|--------------------------------------------------------------------|
Ab|-------------------------------------------------0------------------|
Eb|--577-------------233-------------355-------------22----------------| X2
Bridge
Gb|--------------------------------------------------------------------|
Db|--5---------------7-------------------------------------------------|
Ab|----------------------------------7---------------------------------|
Eb|--------------------------------------------------7---0-------------|
Gb|--------------------------------------------------------------------|
Db|----------------------------------5-----5-----------5-5-5-5-5-7-7---|
Ab|--5-----5-----5---7-----7---7-7-------------------------------------|
Eb|------------5-------------------------------------------------------|
Gb|--------6-----7---------6-----7---------7-----6---------------------|
Db|--9-9-------------7-7-------------5-5-------------5-5-5-5-5-5-5-5---|
Ab|--------------------------------------------------------------------|
Eb|--------------------------------------------------------------------|
Gb|--------------------------------------------------------------------|
Db|--4-4-4-4-4-4-4-4-7-7-7-7-7-7-7-7-----------------------------------|
Ab|--------------------------------------------------------------------|
Eb|--------------------------------------------------------------------|
3rd Chorus
Gb|---------9---11----------11---9----------7---9----------7---6-------|
Db|--------------------------------------------------------------------|
Ab|-------------------------------------------------0------------------|
Eb|--577-------------233-------------355-------------22----------------| X6

11

12
Gb|--------|
Db|--------|
Ab|--------|
Eb|--7-7---|

12

13

5.All these things that I have done
Tuning: Standard (E A D G)
Intro
G---------------------------------------------------------------------------------D---4--4-4-44-4-4-4-4-24-------------------44444444-4444444-----------------------A-1\--------------------24-22222222-2222222---------------------------------------E---------------------------------------------------------------------------------Verse 1(On the F# notes ((4 on D string)) lift your finger after every time played)
G---------------------------------------------------------------------------------D-4-4-4-4------4-4-4-4-------4-4-4-------4-4-4-4----------------------------------A--------4-6-4---------4-6-4-------4-6-4---------4-6-4----------------------------E---------------------------------------------------------------------------------1st
2nd
G----------------------------------------|-----|-----|------------------------- x2
D------------------4-4-4-4-------4-4-4-4-|-----|-4x8-|----------------------------A-2222222222222222---------4-6-4---------|4-6-4|-----|----------------------------E----------------------------------------|-----|-----|----------------------------Chorus 1
G---------------------------------------------------------------------------------D-4-44-4-4444444-4-44-4-444-2h44-----------------4-44-44-44-----------------------A-------------------------------2h44-2-22-2-2-2222--------------------------------E---------------------------------------------------------------------------------Verse 2(Same as verse one just no repeat)
Chorus 2
G---------------------------------------------------------------------------------D-4-44-4-4444444-4-44-4-444-44444--------------4-44-44-44-4444--------------------A---------------------------------2-22-2-2-2222-----------------------------------E---------------------------------------------------------------------------------G---------------------------------------------------------------------------------D-----------------------------------4---------------------------------------------A-6-666-66-6666666-2-222-22-2222222-----------------------------------------------E---------------------------------------------------------------------------------Bridge
(2:32 No Bass until 2:55)
G---------------------------------------------------------------------------------D---------------------------------------------------------------------------------A-1\99/1--1\99/1--1\99/1--1\99/1---------------1\99/1--1\99/1---------------------E--------------------------------1\77/1-1\77/1------------------------------------G---------------------------------------------------------------------------------D----------------------------------4444444444444444\161616161616161616161616--2h44A6666666666666666-2222222222222222-------------------------------------------------2h44E--------------------------------------------------------------------------------------Chorus 3
G--------------------------------------------------------------------------------------D-4-44-4-4444444-4-44-4-444-44444-----------------------4-44-44-44-4444--2h44----------A---------------------------------2-22-2-2-2222-2-222222----------------------2h44-----E---------------------------------------------------------------------------------------

13

14
G--------------------------------------------------------------------------------------D-4-44-4-4444444-4-44-4-444-44444-----------------------4-44-44-44-4444----------------A---------------------------------2-22-2-2-2222-2-222222-------------------------------E--------------------------------------------------------------------------------------G--------------------------------------------------------------------------------------D--------------------------------------------------------------------------------------A-6-66666666-666666-2-22222222-222222-4-44444444-444444-2-2222222-222222-4~------------E--------------------------------------------------------------------------------------G--------------------------------------------------------------------------------------D-4 x32--------------------------------------------------------------------4~
A--------66666666666666666666666666666666-2222222222222222--4444444444444444--E---------------------------------------------------------------------------------------

G----------------D-------------4~-A----------------E-2~--2~--2~------

14

15

6.Andy You’re a star
No Bass

15

16

7.On Top
Tuning: Standard (E A D G)
Pre Verse
G----------------------------------------------------------------D----------------------------------------------------------------A----------------------------------------------------------------E-9-9-9-9/0-------9-9-9-----------7-7-7-7/0-------2---2---0-2-0--Verse
G----------------------------------------------------------------D----------------------------------------------------------------A----------------------------------------------------------------E-9-9-9-9/0-------9-9-9-----------7-7-7-7/0-------2---2---0-2-0--G----------------------------------------------------------------D----------------------------------------------------------------A-------------------------------------------------9---9---7-9-7--E-9-9-9-9/0-------9-9-9-----------7-7-7-7/0----------------------G----------------------------------------------------------------D----------------------------------------------------------------A----------------------------------------------------------------E-9-9-9-9/0-------9-9-9-----------7-7-7-7/0-------2---2---0-2-0--G----------------------------------------------------------------D----------------------------------------------------------------A----------------------------------------------------------------E-9-9-9-9/0-------9-9-9-----------7-7-7-7-7-7-7-7-2---2-2-2-0-2-0Chorus 1
G----------------------------------------------------------------D----------------------------------------------------------------A-----------------2-2-2-2-2-2-2-2-----------------4-4-4-4-4-4-4-4E-4-4-4-4-4-4-2-4-----------------0-0-0-0-0-0-0-0----------------G----------------------------------------------------------------D----------------------------------------------------------------A-----------------2-2-2-2-2-2-2-2/7-7-7-7-7-6-7-6-4-4-4-4-4-4-4-4E-4-4-4-4-4-4-2-4------------------------------------------------Chorus 2
G----------------------------------------------------------------D-------------------------------------------------7-7-7-7-7-7-7-7A-5-5-5-5-5-5-5-5-7-7-7-7-7-7-7-7-9-9-9-9-9-9-9-9----------------E----------------------------------------------------------------G----------------------------------------------------------------D-------------------------------------------------7-7-7-7-7-6-7-9A-5-5-5-5-5-5-5-5-7-7-7-7-7-7-7-7-9-9-9-9-9-9-9-9----------------E----------------------------------------------------------------G----------------------------------------------------------------D-------------------------------------------------7-7-7-7-7-7-7-7A-5-5-5-5-5-5-5-5-7-7-7-7-7-7-7-7-9-9-9-9-9-9-9-9----------------E----------------------------------------------------------------G----------------------------------------------------------------D-9-9-9-9-9-9-9-9-----------------9-9-9-9-9-9-9-9----------------A-----------------7-7-7-7-7-7-7-7-----------------7-7-7-7-7-7-7-7E-----------------------------------------------------------------

16

17
G----------------------------------------------------------------D----------------------------------------------------------------A------------------------------------------------/9-9-9-9-9-9-9-9E-7-7-7-7-7-7-7-7-0-0-0-0-0-0-0-0-2-2-2-2-2-2-2-2----------------Bridge
G----------------------------------------------------------------D----------------------------------------------------------------A----------------------------------------------------------------E-9-9-9-9/0-------9-9-9-----------7-7-7-7/0-------2---2---0-2-0--G----------------------------------------------------------------D----------------------------------------------------------------A----------------------------------------------------------------E-9-9-9-9/0-------9-9-9-----------7-7-7-7-7-7-7-7-2---2-2-2-0-2-0G----------------------------------------------------------------D----------------------------------------------------------------A-----------------2-2-2-2-2-2-2-2-----------------4-4-4-4-4-4-4-4E-4-4-4-4-4-4-2-4-----------------0-0-0-0-0-0-0-0----------------G----------------------------------------------------------------D----------------------------------------------------------------A-----------------2-2-2-2-2-2-2-2/7-7-7-7-7-6-7-6-4~-------------E-4-4-4-4-4-4-2-4------------------------------------------------Chorus 3
G----------------------------------------------------------------D-------------------------------------------------7-7-7-7-7-7-7-7A-5-5-5-5-5-5-5-5-7-7-7-7-7-7-7-7-9-9-9-9-9-9-9-9----------------E----------------------------------------------------------------G----------------------------------------------------------------D-------------------------------------------------7-7-7-7-7-6-7-9A-5-5-5-5-5-5-5-5-7-7-7-7-7-7-7-7-9-9-9-9-9-9-9-9----------------E----------------------------------------------------------------G----------------------------------------------------------------D-------------------------------------------------7-7-7-7-7-7-7-7A-5-5-5-5-5-5-5-5-7-7-7-7-7-7-7-7-9-9-9-9-9-9-9-9----------------E----------------------------------------------------------------G----------------------------------------------------------------D-9-9-9-9-9-9-9-9-----------------9-9-9-9-9-9-9-9----------------A-----------------7-7-7-7-7-7-7-7-----------------7-7-7-7-7-7-7-7E----------------------------------------------------------------G----------------------------------------------------------------D----------------------------------------------------------------A----------------------------------------------------------------E-7-7-7-7-7-7-7-7-0-0-0-0-0-0-0-0-2~-------------/14~------------Song Structure
Pre-Verse
x2
Verse
x1
Chorus 1
x1
Pre Verse
x1
Verse
x1
Chorus 1
x2
Chorus 2
x1
Bridge x1
Chorus 3
x1

17

18

8.Change your mind
Tuning: Standard (E A D G)
~note~ only do the 0/8 at the very beginning. When you repeat, just play the 8s and skip
the 0 for the rest of the song.
Intro/Verse(x3 when you repeat, use the / at the end to slide up to 8 and rep.)
G|------------------------------------------------------------------------|
D|------------------------------------------------------------------------|
A|-0/88-888-888-888-888-888-888-888-8\55-555-5\11-111-1/33-333-333-333-3/-|
E|------------------------------------------------------------------------|
"So if the answer..." this will go right into the verse again
G|----------------------------------------------------------------------|
D|----------------------------------------------------------------------|
A|-1111111111111111-3333333333333333/88-888-888-888-888-888-888-888-888-|
E|----------------------------------------------------------------------|
Verse (x2)
"So if I have a chance..."
G|--------------------------------------------------------------------|
D|--------------------------------------------------------------------|
A|-1111111111111111-3333333333333333/88-888-888-888-8-----------------|
E|---------------------------------------------------11-111-111-111-1-|
Bridge (play lightly)
~x2~
G|------------------------------------------------------------------------|
D|------------------------------------------------------------------------|
A|-0/55-555-5/88-888-8\55-555-5/88-888-8\55-555-5/88-888-8\77777777777777-|
E|------------------------------------------------------------------------|
"And if the answer..."
G|-------------------------------------------------------------------|
D|-------------------------------------------------------------------|
A|-1111111111111111-3333333333333333/8~~~8\-----8(verse starts here)-|
E|-----------------------------------------1~~~/---------------------|
Verse (x2)
Outro
G|------------------------------------------------------------------------|
D|------------------------------------------------------------------------|
A|-1111111111111111-3333333333333333-1111111111111111-3333333333333333/88-|
E|------------------------------------------------------------------------|
Continued
G|-----------------------------------|
D|-------------------------------3~~-|
A|-888-888-888-8\--------------------|
E|---------------11-111-111-111-1----|

| /
| \
| ~

slide up
slide down
vibrato

18

19

9.Believe me Natalie
Tuning: Standard (E A D G)
Intro
G|--------------------------------------------------------------------|
D|--------------------------------------------------------------------|
A|--------------------------------------------------------------------|
E|-/8-88-88-x-8-8-888-88-88-x-8-8-8\1-11-11-x-1-1-111-11-11-x-1-1-1/--|
G|--------------------------------------------------------------------|
D|------------------7-77-77-x-7-7-77----------------------------------|
A|-/8-88-88-x-8-8-88----------------5-55-55-x-5-5-555-55-55-x-5-5-55--|
E|--------------------------------------------------------------------|
1st Verse
G|--------------------------------------------------------------------|
D|--------------------------------------------------------------------|
A|--------------------------------------------------------------------|
E|--8-88-88-x-8-8-888-88-88-x-8-8-8\1-11-11-x-1-1-111-11-11-x-1-1-1/--|
G|--------------------------------------------------------------------|
D|------------------7-77-77-x-7-7-77----------------------------------|
A|-/8-88-88-x-8-8-88----------------5-55-55-x-5-5-555-55-55-x-5-5-55--|
E|--------------------------------------------------------------------|
G|--------------------------------------------------------------------|
D|--------------------------------------------------------------------|
A|--------------------------------------------------------------------|
E|--8-88-88-x-8-8-888-88-88-x-8-8-8\1-11-11-x-1-1-111-11-11-----------|
1st Chorus
G|--------------------------------------------------------------------|
D|------------------7-77-77-7-77-77-----------------------------------|
A|-/8-88-88-8-88-88-----------------5-55-55-5-55-55-5-55-55-5-55-57---|
E|--------------------------------------------------------------------|
G|--------------------------------------------------------------------|
D|------------------7-77-77-7-77-77-----------------------------------|
A|--8-88-88-8-88-88-----------------5-55-55-5-55-55-5-55-55-5-55-55---|
E|--------------------------------------------------------------------|
G|--------------------------------------------------------------------|
D|--------------------------------------------------------------------|
A|--------------------------------------------------------------------|
E|--6-66-66--66-6-6-6-66-66--66-6-6-1~--------------------------------|
Interlude
G|--------------------------------------------------------------------|
D|------------------7-77-77-7-77-77-----------------------------------|
A|-/8-88-88-8-88-88-----------------5-55-55-5-55-55-5-55-55-5-55-57---|
E|--------------------------------------------------------------------|
G|--------------------------------------------------------------------|
D|------------------7-77-77-7-77-77-----------------------------------|
A|--8-88-88-8-88-88-----------------5-55-55-5-55-55-5-55-55-5-55-55---|
E|--------------------------------------------------------------------|
2nd Verse
G|--------------------------------------------------------------------|
D|--------------------------------------------------------------------|
A|--------------------------------------------------------------------|
E|--8~------------8-8~------------8\1~--------------------------------|

19

20
2nd Chorus
G|--------------------------------------------------------------------|
D|------------------7-77-77-7-77-77-----------------------------------|
A|-/8-88-88-8-88-88-----------------5-55-55-5-55-55-5-55-55-5-55-57---|
E|--------------------------------------------------------------------|
G|--------------------------------------------------------------------|
D|------------------7-77-77-7-77-77-----------------------------------|
A|--8-88-88-8-88-88-----------------5-55-55-5-55-55-5-55-55-5-55-55---|
E|--------------------------------------------------------------------|
G|--------------------------------------------------------------------|
D|-----------------------------------------------------------7777--\--|
A|--------------------------------------------------------------------|
E|--6-66-66--66-6-6-6-66-66--66-6-6-5-55-55--55-5-5-5-55-55-----------|
Bridge
G|--------------------------------------------------------------------|
D|----------------------------------7-7-5-5---------------------------|
A|--5-5-5-5-5-5-5-5-5-5-7-7-8-8-7-7---------8-8-7-7-5-5-3-3-----------|
E|----------------------------------------------------------5-5-5-3---|
G|--------------------------------------------------------------------|
D|--------------------------------------------------------------------|
A|--5-5-5-5-5-5-5-5-5-5-7-7-8-8-7-7-----------------------------------|
E|----------------------------------3~--------------4~----------------|
G|--------------------------------------------------------------------|
D|--------------------------------------------------------------------|
A|--------------------------------------------------------------------|
E|--5-5-5-5-5-5-5-5-3-3-3-3-3-3-3-3-1-1-1-1-1-1-1-1-1-1-1-1-1-1-------|
3rd Chorus
G|--------------------------------------------------------------------|
D|------------------7-77-77-7-77-77-----------------------------------|
A|-/8-88-88-8-88-88-----------------5-55-55-5-55-55-5-55-55-5-55-57---|
E|--------------------------------------------------------------------| X2
G|--------------------------------------------------------------------|
D|------------------7-77-77-7-77-77-----------------------------------|
A|--8-88-88-8-88-88-----------------5-55-55-5-55-55-5-55-55-5-55-55---|
E|--------------------------------------------------------------------|
G|--------------------------------------------------------------------|
D|--------------------------------------------------------------------|
A|--3-33-33-3-33-33-3-33-33-3-33-33-----------------------------------|
E|----------------------------------3-33-33-3-33-33-3-33-33-3-33-33---|
G|--------------------------------------------------------------------|
D|--------------------------------------------------------------------|
A|----------------------------------5-5-5-5-5-5-5-5-5-5-5-5-5-5-5-5---|
E|--1-------------1/5-------------------------------------------------|
G|--------------------------------------------------------------------|
D|--------------------------------------------------------------------|
A|--3-33-33-3-33-33-3-33-33-3-33-33-----------------------------------|
E|----------------------------------3-33-33-3-33-33-4-44-44-4-4-4-4---|
Outro
G|--------------------------------------------------------------------|
D|--------------------------------------------------------------------|
A|--------------------------------------------------------------------|
E|--5-5-5-5-5-5-5-5-7-7-7-7-7-7-7-7-8~-----------------------8h10p8---|

20

21
G|--------------------------------------------------------------------|
D|--------------------------------------------------------------------|
A|--------------------------------------------------------------------|
E|--5~----------------------------5/8~-----------------------8h10p8---|
G|--------------------------------------------------------------------|
D|--------------------------------------------------------------------|
A|--------------------------------------------------------------------|
E|--5~----------------------------5\3-------------3\1-------------1/--|
G|------------------------------------|
D|------------------------------------|
A|------------------------------------|
E|-/6~--------------------------------|

21

22

10.Midnight Show
********* All Strings are Half Note Down ***************
******************* Gb Db Ab Eb ************************
Intro/Chorus1
Gb|--------------------------------------------------------------------------|
Db|--------------------------------------------7---7h9---------7---7h9-------|
Ab|--------------------------------------------------------------------7-----|
Eb|--12-12-0-0-12-0-0-12---12-0-0-12-0-0-0-7-7-----------7---7---------------|
Gb|----------------------------------------------------------------------------|
Db|-------5--5h7---------5---5h7-----------------------------------------------|
Ab|------------------------------5---------------------------------------------|
Eb|--5-5-----------5---5-------------3-3-3-3-3-3-3/10---10-10-10-10-10-10-10---|
Verse1
Gb|----------------------------------------------------------------------------|
Db|----------------------------------------------------------------------------|
Ab|------------9h10---------------9h10p9---------------------------------------|
Eb|--12-0-10-0--------12---0-10-0----------7-0-5-0-9h10---7---0-5-0-9h10p9-----| X2
Pre-Chorus
Gb|--------------------------------------------------------------------------|
Db|--------------------------------------------------------------------------|
Ab|--------------------------------------------9h10---------------9h10p9-----|
Eb|--8p0-8---8---8---7---7---7---7---12-0-10-0--------12---0-10-0------------|
Gb|------------------------------------------------------------------------------|
Db|------------------------------------------------------------------------------|
Ab|-------------------------------------------------------------------------10\--|
Eb|--8p0-8---8---8---7---7---7---7---10-10-10-10-10-10-10-10-10------------------|
Chorus1
Verse2
Gb|------------------------------------------------------------------------------|
Db|------------------------------------------------------------------------------|
Ab|------------9h10---------------9h10p9-------------9h10-------------9h10p9-----|
Eb|--12-0-10-0--------12---0-10-0----------12-0-10-0------12---0-10-0------------|
Gb|----------------------------------------------------------------------------|
Db|----------------------------------------------------------------------------|
Ab|----------------------------------------------9h10-------------9h10p9-------|
Eb|--7-0-5-0-9h10---7---0-5-0-9h10p9---12-0-10-0------12---0-10-0--------------|
Verse1
Pre-Chorus
Chorus1
Guitar Solo/Chorus2
Gb|--------------------------------------------------------------------------|
Db|--------------------------------------------7---7h9---------7---7h9-------|
Ab|--------------------------------------------------------------------7-----|
Eb|--12-12-0-0-12-0-0-12---12-0-0-12-0-0-0-7-7-----------7---7---------------|
Gb|--------------------------------------------------------------------|
Db|-------5--5h7---------5---5h7---------------------------------------|
Ab|------------------------------5-------------------------------------|
Eb|--5-5-----------5---5-------------3-3-3-3-3-5-3-2---2-2-2-2-3-2-2---|

22

23
Bridge
Gb|--------------------------------------------------------------------|
Db|--------------------------------------------------------------------|
Ab|--------------------------------------------------------------------|
Eb|--8~--------------7~--------------0~--------------2-----3-----5-----| X2
Gb|--------------------------------------------------------------------|
Db|--------------------------------------------------------------------|
Ab|--------------------------------------------------------------------|
Eb|--8p0-8---8---8-8-7---7---7---7-7-5---5---5-5---5---5-5---5-5-5-5---|
Gb|----------------------------------------------------------------------------|
Db|----------------------------------------------------------------------------|
Ab|----------------------------------------------------------------------------|
Eb|--3---3---3-3---3---3-3---3-3-3-3-2-2-2-2-2-2-2-2/10-10-10-10-10-10-10-10---|
Chorus1 X2
Chorus2
Chorus1

23

24

11.Everything Will Be Alright
No Bass

24

25

Sam’s Town

Song Name

Page Number

1.Sam’s Town

26
27
28
30
32
34
36
39
41
42
43
44
45

2.Enterlude
3.When You Were Young
4.Bling (Confession of A King)
5.For Reasons Unknown
6.Read My Mind
7.Uncle Jonny
8.Bones
9.My List
10.The River Is Wild
11.Why Do I Keep Counting
12.Exitlude
13.Where The White Boys Dance

25

26

1.Sam’s Town
I can't work it out but it is on YouTube.

26

27

2.Interlude
No Bass

27

28

3.When You were Young
Tuning: Standard (E A D G)
Intro x 2
G|-----------------|-----------------|-----------------|-----------------|
D|-----------------|-----------------|-----------------|-----------------|
A|-----------------|-----------------|-2-2-2-2-2-2-2---|-----------------|
E|-0-0-0-0-0-0-0-0-|-2-2-2-4—4-4-4-4—|---------------4-|—0-0-0-0-0-0-0-0-|
Verse x 2
G|-----------------|----------------------|------------------|-----------------|
D|-----------------|----------------------|-9-9-9-9-9-9-9----|-----------------|
A|-7-7-7-7-7-7-7-7-|-9-9-9-11—11-11-11-11—|---------------11-|-7-7-7-7-7-7-7-7-|
E|-----------------|----------------------|------------------|-----------------|
Chorus x 2
G|-----------------|-----------------|-----------------|-----------------|
D|-----------------|-----------------|-----------------|-----------------|
A|-----------------|-----------------|-2-2-2-2-2-2-2---|-----------------|
E|-0-0-0-0-0-0-0-0-|-2-2-2-4—4-4-4-4—|---------------4-|—0-0-0-0-0-0-0-0-|
Verse x 2
G|-----------------|----------------------|------------------|-----------------|
D|-----------------|----------------------|-9-9-9-9-9-9-9----|-----------------|
A|-7-7-7-7-7-7-7-7-|-9-9-9-11—11-11-11-11—|---------------11-|-7-7-7-7-7-7-7-7-|
E|-----------------|----------------------|------------------|-----------------|
Verse x 3
G|-----------------|-----------------|-----------------|-----------------|
D|-----------------|-----------------|-----------------|-----------------|
A|-----------------|-----------------|-2-2-2-2-2-2-2---|-----------------|
E|-0-0-0-0-0-0-0-0-|-2-2-2-4—4-4-4-4—|---------------4-|—0-0-0-0-0-0-0-0-|
G|-----------------|-----------------|-----------------|-----------------|
D|-----------------|-----------------|-----------------|-----------------|
A|-----------------|-----------------|-----------------|-----------------|
E|-0~--------------|-2~----4~--------|-7~--------------|-0~--------------|
Bridge 1
G|-----------------|
D|-----------------|
A|-----------------|
E|-0-0-0-0-2-2-2-2-|
Verse x 2
G|-----------------|-----------------|-----------------|-----------------|
D|-----------------|-----------------|-----------------|-----------------|
A|-----------------|-----------------|-2-2-2-2-2-2-2---|-----------------|
E|-0-0-0-0-0-0-0-0-|-2-2-2-4—4-4-4-4—|---------------4-|—0-0-0-0-0-0-0-0-|

28

29
Pre-Break
G|-----------------|----------------|-----------------|
D|-----------------|----------------|-----------------|
A|-7-7-7—6-6-6—4-4-|4—2-2-2—2—1-----|-----------------|
E|-----------------|------------4—*-|-2~~-------------|
Break x 9 Bars
Verse
G|-----------------|-----------------|-----------------|-------------------|
D|-----------------|-----------------|-----------------|-------------------|
A|-----------------|-----------------|-2-2-2-2-2-2-2---|--------/7-7-7-7---|
E|-0-0-0-0-0-0-0-0-|-2-2-2-4—4-4-4-4—|---------------4-|—0-0-0-0-----------|
Verse x 4
G|-----------------|-----------------|-----------------|-----------------|
D|-----------------|-----------------|-----------------|-----------------|
A|-----------------|-----------------|-2-2-2-2-2-2-2---|-----------------|
E|-0-0-0-0-0-0-0-0-|-2-2-2-4—4-4-4-4—|---------------4-|—0-0-0-0-0-0-0-0-|
Bridge 2
G|-----------------|-----------------|------------------|-----------------|
D|-----------------|-----------------|------------------|-----------------|
A|-----------------|-----------------|------------------|-----------------|
E|-2-2-2-2-2-2-2-2-|-2-2-2-2-2-2-2-2—|-7-7-7-7-7-7--6—6-|-4-4-4-4-4-4-2-2-|
Chorus x 4
G|-----------------|-----------------|-----------------|-----------------|
D|-----------------|-----------------|-----------------|-----------------|
A|-----------------|-----------------|-2-2-2-2-2-2-2---|-----------------|
E|-0-0-0-0-0-0-0-0-|-2-2-2-4—4-4-4-4—|---------------4-|—0-0-0-0-0-0-0-0-|
Ending
G|-----------------|----------------|-----------------|
D|-----------------|----------------|-----------------|
A|-7-7-7—6-6-6—4-4-|4—2-2-2—2—1-----|-----------------|
E|-----------------|------------4—*-|-2~~-------------|

29

30

4.Bling Confession Of A King
Tuning: Standard (E A D G)
Verse:
G|---------444444\2-----------------------------------------------------|
D|-----------------4---------55555\3----------22224455------------------|
A|-22222222-------------------------5------------------2222222222222222-| x2
E|-------------------33333333---------00000000--------------------------|
Pre-chorus:
Watch it go...Bling
G|----------------------------------|
D|----------------------------------|
A|------------------------------5-4-|
E|-3333333333333333-555555555555----|
Chorus:
G|----------------------------------|
D|----------------------------------|
A|-55555555-------------------------| x1
E|---------222222223333333333333333-|
G|----------------------------------|
D|----------------------------------|
A|----------------------------------| x3
E|-55555555222222223333333333333333-|
Verse:
G|---------444444\2-----------------------------------------------------|
D|-----------------4---------55555\3----------22224455------------------|
A|-22222222-------------------------5------------------2222222222222222-| x2
E|-------------------33333333---------00000000--------------------------|
Watch it go...(When I offer you survival)...Bling
G|----------------------------------|
D|----------------------------------|
A|------------------------------5-4-|
E|-3333333333333333-555555555555----|
Chorus:
G|----------------------------------|
D|----------------------------------|
A|-55555555-------------------------| x1
E|---------222222223333333333333333-|
G|----------------------------------|
D|----------------------------------|
A|----------------------------------| x3
E|-55555555222222223333333333333333-|
Ending:
G|----------------------------------|
D|----------------------------------|
A|-55555555555555555555555555555555-|
E|----------------------------------|

30

31
G|--------------------------|
D|--------------------------|
A|---------2222-------------|
E|-33335555----222233335555-|
G|----------------------------------|
D|----------------------------------|
A|-55555555555555555555555555555555-|
E|----------------------------------|
G|--------------------------|
D|--------------------------|
A|---------2222-------------|
E|-33335555----222233335555-|
G|----------------------------------|
D|----------------------------------|
A|-5555555555555555-----------------|
E|-----------------3333333333333333-|
G|--------------------------|
D|--------------------------|
A|---------2222-------------|
E|-33335555----222233335555-|
Final note:
G|-----|
D|-----|
A|--5--|
E|-----|

31

32

5.For Reasons Unknown
Tuning: Standard (E A D G)
Bass comes in at 0:31
1st Verse
Gb|------------------------------------------------------------------------|
Db|77777777777777777777777777777777----------------999999991010101010101010|
Ab|--------------------------------7777777777777777------------------------|
Eb|------------------------------------------------------------------------|
Gb|---------------------------------------------------------------|
Db|11(x16)7777777777777777----------------999999991010101010101010|
Ab|-----------------------7777777777777777------------------------|
Eb|---------------------------------------------------------------|
Gb|----------------------------------------------------------------|
Db|----------------------------------------------------------------|
Ab|4444444444444444--------------------------------2222222233333333|
Eb|----------------55555555555555550000000000000000----------------|
1st Chorus
Gb|------------------------------------------------------------------|
Db|------------------------------------------------------------------|
Ab|------------------------------------------------------------------|
Eb|00000000222222229999999977777777000000002222222299999999777777775~|
2nd Verse
Gb|------------------------------------------------------------------------|
Db|77777777777777777777777777777777----------------999999991010101010101010|
Ab|--------------------------------7777777777777777------------------------|
Eb|------------------------------------------------------------------------|
Gb|----------------------------------------------------------------|
Db|----------------------------------------------------------------|
Ab|4444444444444444--------------------------------2222222233333333|
Eb|----------------55555555555555550000000000000000----------------|
Gb|----------------------------------------------------------------|
Db|----------------------------------------------------------------|
Ab|4444444444444444--------------------------------2222222233333333|
Eb|----------------55555555555555550000000000000000----------------|
2nd Chorus
Gb|----------------------------------------------------------------|
Db|----------------------------------------------------------------|
Ab|----------------------------------------------------------------|
Eb|0000000022222222999999997777777700000000222222229999999977777777|
Then
Gb|----------------------------------------------------------------|
Db|----------------------------------------------------------------|
Ab|----------------------------------------------------------------|
Eb|0~------2~------999999997777777700000000222222229999999977778888|
Gb|----------------------------------------------------------------|
Db|----------------------------------------------------------------|
Ab|----------------------------------------------------------------|
Eb|9999999955555555000000007777888899999999555555550000000077778888|

32

33
Last Chorus
Gb|----------------------------------------------------------------|
Db|----------------------------------------------------------------|
Ab|----------------------------------------------------------------|
Eb|0000000022222222999999997777777700000000222222229999999977777777|
Gb|--------------------------------------------------------------------|
Db|--------------------------------------------------------------------|
Ab|--------------------------------------------------------------------|
Eb|00000000222222229999999977777777000000002222222299999999777777770~~-|

33

34

6.Read My Mind
Tuning: Standard (E A D G)
INTRO (KEYBOARD AND DRUMS)
BASS STARTS AT 0:29
G|-------------------------------------|
D|-------------------------------------|
A|444444441111-------------------------|
E|------------11114444444444444444-----|

X2

G|-------------------------------------|
D|-------------------------------------|
A|444444441111-------------------------|
E|------------11114444444444444444-----|

X4

‘The good old days, the honest man…’
G|-------------------------------------|
D|-------------------------------------|
A|999999994444444----------------------|
E|---------------444444444444444-------|

X2

‘…I don’t mind…’
G|------------------------------------------------|
D|------------------------------------------------|
A|999999994444444----0000111188889999999999999999-|
E|---------------4444-----------------------------|
G|------------------------------------------------|
D|------------------------------------------------|
A|11-11-11-11-11-11-11-11-11-11-11-11-11-11-11-11-|
E|------------------------------------------------|
‘It’s funny how you just break down….’
G|-------------------------------------|
D|-------------------------------------|
A|444444441111-------------------------|
E|------------11114444444444444444-----|

X4

‘The teenage queen, the loaded gun…
G|-------------------------------------|
D|-------------------------------------|
A|999999994444444----------------------|
E|---------------444444444444444-------|

X2

‘…I don’t mind…’
G|------------------------------------------------|
D|------------------------------------------------|
A|999999994444444----0000111188889999999999999999-|
E|---------------4444-----------------------------|
G|------------------------------------------------|
D|------------------------------------------------|
A|11-11-11-11-11-11-11-11-11-11-11-11-11-11-11-11-|
E|------------------------------------------------|
BRIDGE
‘…when you read my mind’
G|----------------------------------------|
D|----------------------------------------|
A|11111111---------------4444333311111111-|

34

35
E|--------444444442222222-----------------|
G|--------------------------------------------------|
D|--------------------------------------------------|
A|4444444422222222444444444444444444444444/16 (X16)-|
E|--------------------------------------------------|
‘Slippin’ in my faith until I fall…’
G|-------------------------------------|
D|-------------------------------------|
A|999999994444444----------------------|
E|---------------444444444444444-------|

X2

G|------------------------------------------------|
D|------------------------------------------------|
A|999999994444444----0000111188889999999999999999-|
E|---------------4444-----------------------------|
‘I don’t mind if you don’t mind…’
G|----------------------------------------|
D|----------------------------------------|
A|11111111---------------4444333311111111-|
E|--------444444442222222-----------------|
G|--------------------------------------------------|
D|--------------------------------------------------|
A|444444442222222222222222--------------------------|
E|--------------------------------------------------|
‘oooooooo’
G|-------------------------------------|
D|-------------------------------------|
A|4-------1----------------------------|
E|------------1---4--------------------|
‘The stars are blazing like rebel diamonds…’
G|-------------------------------------|
D|-------------------------------------|
A|4-------1----------------------------|
E|------------1---4--------------------|
‘Can you read my mind…’
G|-------------------------------------|
D|-------------------------------------|
A|444444441111---------------------4~ -|
E|------------11114444444444444444-----|

X2

35

36

7.Uncle Jonny
Tuning: Standard (E A D G)
VERSE 0:10
G|----------------|----------------|----------------|----------------|
D|----------------|----------------|----------------|----------------|
A|------11-13\----|----------------|------11-13\----|----------------|
E|-4-6-----------4|-6-6-6-6-6-6-6-6|-4-6-----------4|-2-2-2-2-1-1-1-1|
G|----------------|----------------|----------------|----------------|
D|----------------|----------------|----------------|----------------|
A|----------------|----------------|----------------|----------------|
E|-4-6-6-6-6-6-6-6|-4-6-6-6-6-6-6-6|-4-6-6-6-6-6-6-6|-2-2-2-2-1-1-1-1|
G|----------------|----------------|----------------|----------------|
D|----------------|----------------|----------------|----------------|
A|------11-13\----|----------------|------11-13\----|----------------|
E|-4-6-----------4|-6-6-6-6-6-6-6-6|-4-6-----------4|-2-2-2-2-1-1-1-1|
G|----------------|----------------|----------------|----------------|
D|----------------|----------------|----------------|----------------|
A|----------------|----------------|----------------|----------------|
E|-4-6-6-6-6-6-6-6|-4-6-6-6-6-6-6-6|-4-6-6-6-6-6-6-6|-2-2-2-2-1-1-1-1|
G|----------------|----------------|----------------|----------------|
D|----------------|----------------|----------------|-4-4-4-4-3-3-3-3|
A|----------------|----------------|----------------|----------------|
E|-4-6-6-6-6-6-6-6|-4-6-6-6-6-6-6-6|-4-6-6-6-6-6-6-6|----------------|

CHORUS 1:28
G|----------------|----------------|----------------|----------------|
D|----------------|----------------|----------------|----------------|
A|----------------|----------------|-6-6-6-6-6-6-6-6|-6-6-6-6-6-686--|
E|-2-2-2-2-2-2-2-2|-2-2-2-2-2-2-2-2|----------------|---------------8|

G|----------------|----------------|----------------|----------------|
D|----------------|----------------|----------------|----------------|
A|----------------|-----------6-8--|----------------|----------------|
E|-6-6-6-6-6-6-6-6|-6-6-6-6-6-----8|-4-4-4-4-4-4-4-4|-4-4-4-4-4-4-4-4|

G|----------------|----------------|----------------|----------------|
D|----------------|----------------|----------------|----------------|
A|----------------|-6-6-6-6-6-6-6-6|-4-----4-3-----3|-6-----6-4-----4|
E|-2-2-2-2-2-2-2-2|----------------|----------------|----------------|

G|----------------|----------------|
D|----------------|----------------|
A|----------------|----------------|
E|-2-2-2-2-2-2-2-3|-4-4-4-4-4-4-4-4|

x1

36

x2

x2

x1

x1

x1

37
VERSE 2:06
G|----------------|----------------|----------------|----------------|
D|----------------|----------------|----------------|----------------|
A|------11-13\----|----------------|------11-13\----|----------------|
E|-4-6-----------4|-6-6-6-6-6-6-6-6|-4-6-----------4|-2-2-2-2-1-1-1-1|
G|----------------|----------------|----------------|----------------|
D|----------------|----------------|----------------|----------------|
A|----------------|----------------|----------------|----------------|
E|-4-6-6-6-6-6-6-6|-4-6-6-6-6-6-6-6|-4-6-6-6-6-6-6-6|-2-2-2-2-1-1-1-1|
G|----------------|----------------|----------------|----------------|
D|----------------|----------------|----------------|-4-4-4-4-3-3-3-3|
A|----------------|----------------|----------------|----------------|
E|-4-6-6-6-6-6-6-6|-4-6-6-6-6-6-6-6|-4-6-6-6-6-6-6-6|----------------|

x1

x1

x1

CHORUS 2:40
G|----------------|----------------|----------------|----------------|
D|----------------|----------------|----------------|----------------|
A|----------------|----------------|-6-6-6-6-6-6-6-6|-6-6-6-6-6-686--|
E|-2-2-2-2-2-2-2-2|-2-2-2-2-2-2-2-2|----------------|---------------8|

G|----------------|----------------|----------------|----------------|
D|----------------|----------------|----------------|----------------|
A|----------------|-----------6-8--|----------------|----------------|
E|-6-6-6-6-6-6-6-6|-6-6-6-6-6-----8|-4-4-4-4-4-4-4-4|-4-4-4-4-4-4-4-4|

G|----------------|----------------|----------------|----------------|
D|----------------|----------------|----------------|----------------|
A|----------------|-6-6-6-6-6-6-6-6|-4-----4-3-----3|----------------|
E|-2-2-2-2-2-2-2-2|----------------|----------------|-6-----6-4-----4|

G|----------------|----------------|
D|----------------|----------------|
A|----------------|----------------|
E|-2-2-2-2-2-2-2-3|-4-4-4-4-4-4-4-4|

x1

VOCAL HARMONY PART 3:19
G|----------------|----------------|----------------|----------------|
D|----------------|----------------|----------------|----------------|
A|-4-----4-3-----3|----------------|----------------|----------------|
E|----------------|-6-----6-4-----4|-2-2-2-2-2-2-2-3|-4-4-4-4-4-4-4-4|

x2

VERSE 3:41
G|----------------|----------------|----------------|----------------|
D|----------------|----------------|----------------|----------------|
A|------11-13\----|----------------|------11-13\----|----------------|
E|-4-6-----------4|-6-6-6-6-6-6-6-6|-4-6-----------4|-2-2-2-2-1-1-1-1|
OUTRO 4:03
G|----------------|----------------|----------------|----------------|
D|-8-----8-8-----8|-8-----8-8-----8|----------------|----------------|
A|----------------|----------------|-8-----8-6-----6|-4-----4-3-----3|
E|----------------|----------------|----------------|----------------|

37

x2

38
G|----------------|
D|----------------|
A|-6--------------|
E|----------------|

x1

38

39

8.Bones
Tuning: Standard (E A D G)
Intro/Chorus (after keyboard riff)
G|-------------------------------------|
D|-------------------------------------|
A|-0000000000000000-22222222-----------|
E|---------------------------2222-0000-|
G|-------------------------------------|
D|-------------------------------------|
A|-5555555555555555-7777777777777777---|
E|-------------------------------------|
Verse
G|-------------------------------------|
D|-------------------------------------|
A|----------22222222----------44444444-|
E|-22222222----------44444444----------|
Pre-Chorus 1
G|--------------------------------------------|
D|--------------------------------------------|
A|-5555555555555555-4-2-0---------------------|
E|------------------------4-22222222-00000000-|
Bridge
G|-------------------|
D|-------------------|
A|-00000000-22222222-|
E|-------------------|
End Bridge
G|----------------------------------|
D|----------------------------------|
A|-77777777777777777777777777777777-|
E|----------------------------------|
Final Chorus
G|---------------------------------------|
D|---------------------------------------|
A|-0~-------2~--------5~-------7~--------|
E|---------------2--0--------------------|
Pre-Chorus 2 Part 1(after "wait till tomorrow you'll be fine")
G|-----------------------------------|
D|-----------------------------------|
A|-5555555555555555-7777777777777777-|
E|-----------------------------------|
Pre-Chorus 2 Part 2
G|--------------------------------------------|
D|--------------------------------------------|
A|-5555555555555555-4-2-0---------------------|
E|------------------------4-22222222-00000000-|
Outro
G|----|
D|----|
A|-0~-|
E|----|

39

40
Order
Intro 1x
Verse 4x
Pre Chorus 1 1x
Chorus 1x
Verse 4x
Pre-Chorus 2 Part 1 1x
Verse 2x
Pre-Chorus 2 Part 2 1x
Chorus 2x
Bridge 4x
End Bridge 1x
Final Chorus 2x
Chorus 2x (slow down here toward the Outro)
Outro 1x

40

41

9.My List
Tuning: Standard (E A D G)
Intro/Verse/Outro
-----------------------|
-----------------------|
-----------------------|
---8--8--8--8----------|

Play until 1:59

Play at 1:59
--------------5-Play this fill at 2:06
-----------------------|
-----------------------|
-----------------------|
---0h1--2/8------------|
Chorus
------------------------------|
------------------------------|
--------7-7-7-7-8-8-8-8----57-|
-8-8-8-8---------------8-8----|
------------------------------|
---------------7-797-7--------|
--8-8108-7-787----------------|
------------------------15/8--|

play till 3:04

Chorus part 2
---------------------------------------|
---------------------------------------|
---------7-7-7-7-8-8-8-8--10-10-10-10--|
-8-8-8-8-------------------------------|
---------------------------------------|
---------------------------------------|
---------7-7-7-7-8-8-8-8---------------|
-8-8-8-8-----------------10-10-10-10---|
---------------------------------------|
---------------------------------------|
----------7-7-7-7---------7-7-7-7------|
-8-8-8-8----------8-8-8-8--------------|
---------------------------------------|
---------------------------------------|
----------7-7-7-7--------3-------------|
--8-8-8-8----------0-2-4---------------|
Play the Intro part until 3:43
At 3:43 play
---------|
---------|
-------3-|
-0-2-4---|

Then play the intro till the end.

41

42

10.The River Is Wide
No Bass

42

43

11.Why Do I Keep Counting
No bass

43

44

12.Exitlude
No Bass

44

45

13.Where the White boys dance
No Bass

45

46

Sawdust

Track Name

Page Number

1.Tranquilize
2.Shadowplay
3.All The Pretty Faces
4.Leave The Bourbon On The Self
5.Sweet Talk
6.Under The Gun
7.Where The White Boys Dance
8.Show You How
9.Move Away
10.Glamorous Indie Rock and Roll
11.Who Let You Go?
12.The Ballard Of Michael Valentine
13.Ruby, Don’t Take Your Love To Town
14.Daddy’s Eyes
15.Sam’s Town (Abbey Road Version)
16.Romeo and Juliet
17.Change Your Mind
18.Mr Brightside (Remix)

47
48
50
51
52
53
55
56
57
59
61
62
63
64
65
66
67
69

46

47

1.Tranquilize
Tuning: Standard (E A D G)
Main riff part 1
G|------------------|
D|------------------|
A|------------------|
E|--0---9-/-3---4-1-|
Main riff part 2
G|----------------------|
D|----------------------|
A|----------------------|
E|--0---9---7-9-7-/-4-1-|
Intro into verse 1 goes
Riff 1, 1, 1, 2, 1, 2, 1, 2, 1, 2, 1, 2, 2, 1, 1, 2, 1, 2, 1, 1, 2, 2
Pre-chorus (those 10’s and 11’s are played at the same speed as the rest)
G|----------------------------------------------------------------|
D|----------------------------------------------------------------|
A|----------------------------------------------------------------|
E|-00000002222222444444455555557777777888888810-10-10-10-10-10-10-|
G|--------------------------------------------------|
D|--------------------------------------------------|
A|--------------------------------------------------|
E|-11-11-11-11-11-11-11-13-----13-----13--13--13—13~|
Chorus
G|-----------------|
D|-----------------|
A|-----------------|
E|-1-1-1-1-4-4-4-4-|

x7

Post Chorus
G|------------------|
D|-6-5-4-3-2-1------|
A|-------------5-4--|
E|------------------|
Verse 2 goes
Riff 1, 2, 2, 2, 1, 1, 2, 1, 1, 2
Pre-chorus x7
Chorus
Ending
G|----------------------------------|
D|-6-5-4-3-2-1----------------------|
A|------------5-4-3-2-1-------------|
E|----------------------5-4-3-2-1-0~|
I’m pretty sure the final part with Lou Reed is just piano and drums

47

48

2.Shadowplay
Tuning: Standard (E A D G)

------------------------------------------------------------------------|
D----3-3-3-3-3-3-3-3-3-3-3-3-3----5--------------------------------------|
A------------------------------------0-0-0-0-0-0-0-0-0-0-0-0-0-0-0-0-----|
E------------------------------------------------------------------------|
G------------------------------------------------------------------------|
D----3-3-3-3-3-3-3-3-3-3-3-3-3----5--------------------------------------|
A------------------------------------0-0-0-0-0-0-0-0-0-0-0-0-0-0-0-0-----|
E------------------------------------------------------------------------|
G------------------------------------------------------------------------|
D----3-3-3-3-3-3-3-3-3-3-3-3-3----5--------------------------------------|
A------------------------------------0-0-0-0-0-0-0-0-0-0-0-0-0-0-0-0-----|
E------------------------------------------------------------------------|
G------------------------------------------------------------------------|
D----3-3-3-3-3-3-3-3-3-3-3-3-3----5--------------------------------------|
A------------------------------------0-0-0-0-0-0-0-0-0-0-0-0-0-0-0-0-----|
E------------------------------------------------------------------------|
G------------------------------------------------------------------------|
D----3-3-3-3-3-3-3-3-3-3-3-3-3----5--------------------------------------|
A------------------------------------0-0-0-0-0-0-0-0-0-0-0-0-0-0-0-0-----|
E------------------------------------------------------------------------|
G------------------------------------------------------------------------|
D----3-3-3-3-3-3-3-3-3-3-3-3-3----5--------------------------------------|
A------------------------------------0-0-0-0-0-0-0-0-0-0-0-0-0-0-0-0-----|
E------------------------------------------------------------------------|
You get the idea. But there's more!!! There's the solo part, starting
soon after the final line sung. You wait for a minute, and start this riff.
G-----7---5---------7-7---5-------9----7--5-------7-7---5---------|
D------------7----------------7--------------7--------------7-----|
A-----------------------------------------------------------------|
E-----------------------------------------------------------------|
Repeat it, then go like this!!!!
G----7-7-7-7-9-9-9-10-10-10-10-9-9-9-9--7-9-7-5--7-5-4--4--4--4--4----|
D---------------------------------------------------------------------|
A---------------------------------------------------------------------|
E---------------------------------------------------------------------|
G----7-7-7-7-9-9-9-9-10-10-10-10-12-12-12-12-14-14-14-14-16-16-16-------|
D-----------------------------------------------------------------------|
A-----------------------------------------------------------------------|
E-----------------------------------------------------------------------|
G--17--16-17-16-17-16-14--|
D-------------------------|
A-------------------------|
E-------------------------|

48

49
G---14-16---14-16--14-12--14-12-14-12-14-10------|
D------------------------------------------------|
A------------------------------------------------|
E------------------------------------------------|
G---14-16---14-16--14-12--14-12-14-12-10-10------|
D------------------------------------------------|
A------------------------------------------------|
E------------------------------------------------|
G--14-16--14-16-16-16-16-17-17-17-17-19-19-19-19--|
D-------------------------------------------------|
A-------------------------------------------------|
E-------------------------------------------------|
G---7--5--------7-7--5------9---7-|(hold)
D----------7------------7---------|
A---------------------------------|
E---------------------------------|

49

50

3.All the pretty faces
No Bass

50

51

4.Leave the Bourbon on the shelf
No Bass

51

52

5.Sweet Talk
No Bass

52

53

6.Under the gun
Tuning: Standard (E A D G)

Verse(repeat twice)
G|--------------------------------------------------------------------|
D|--------------------------------------------------------------------|
A|--6---6---6-6-6---6-6-6-6-6-6-6-6-4---4---4-4-4---4-4-4-4-4-4-4-4---|
E|--------------------------------------------------------------------|
G|--------------------------------------------------------------------|
D|--------------------------------------------------------------------|
A|--6---6---6-6-6---6-6-6-6-6-6-6-6-8---8---8-8-8---8-8-8-8-8-8-8-8---|
E|--------------------------------------------------------------------|
Pre-Chorus
G|--------------------------------------------------------------------|
D|--------------------------------------------------------------------|
A|--------------------------------------------------------------------|
E|--6-6-6-6-6-6-6-6-6-6-6-6-6-6-6-6-4-4-4-4-4-4-4-4-4-4-4-4-4-4-4-4---|
G|--------------------------------------------------------------------|
D|-----------------------------------------------/6---6-6-6-6-6-6-6---|
A|--------------------------------------------------------------------|
E|--6-6-6-6-6-6-6-6-6-6-6-6-6-6-6-6-4-4-4-4-4-4-----------------------|
Chorus
G|--------------------------------------------------------------------|
D|----------------3-----------------------------------------3---------|
A|--4-4-4-4-4-4-6---3-3-3-3-3-3-4-6---------------------------6-4-3---|
E|----------------------------------6-6-6-6-6-6-6-6-6-6-6-6-----------|
G|--------------------------------------------------------------------|
D|----------------3---------------------------------------------------|
A|--4-4-4-4-4-4-6---3-3-3-3-3-3-4-6-----------------------------------|
E|----------------------------------6-6-6-6-6-6-6-6-6-6-6-6-6-6-6-6---|
Verse
Pre-Chorus
Chorus
Bridge
G|---------------------------------------------------------------------|
D|-----------------/8-8-8-8-8-8-8-8----------------/6-6-6/8/10---6-----|
A|---------------------------------------------------------------------|
E|--6-------6-----------------------4-------4--------------------------|
G|----------------------------------------------------------------------|
D|-----------------/8-8-8-8-8-8-8-8----------------/6-6-6/8/10---10-----|
A|----------------------------------------------------------------------|
E|--6-------6-----------------------4-------4---------------------------|
G|--------------------------------------------------------------------|
D|--------------------------------------------------------------------|
A|--9-9-9-8-8-8-8-8-9-9-9-8-8-8-8-8-9-9-9-8-8-8-8-8-8-9---------------|
E|--------------------------------------------------------------------|
Pre-Chorus

53

54
Chorus
G|--------------------------------------------------------------------|
D|----------------3-----------------------------------------3---------|
A|--4-4-4-4-4-4-6---3-3-3-3-3-3-4-6---------------------------6-4-3---|
E|----------------------------------6-6-6-6-6-6-6-6-6-6-6-6-----------|
G|--------------------------------------------------------------------|
D|----------------3---------------------------------------------------|
A|--4-4-4-4-4-4-6---3-3-3-3-3-3-4-6-------------------------3-3-3-3---|
E|----------------------------------6-6-6-6-6-6-6-6-6-6-6-6-----------|
G|--------|
D|--------|
A|--4-4---|
E|--------|

54

55

7.Where the white boys dance
No Bass

55

56

8.Show you how
No Bass

56

57

9.Move Away
Tuning: Standard (E A D G)
Intro
G-------------------------------------------|
D-------------------------------------------|
A-------------------------------------------|
E-7-7-7-7-7-7-7-7-7-7-7-7-7-7-7-7-7-7-7-7-7-|
G---------------------------------|
D---------------------------------|
A-77777777777770007777777777777000
E--------------------------------PRE VERSE
G--------------------------|
D--------------------------|
A-777777-1010-33333-000----|
E--------------------------|

X4

VERSE
G--------------------------|
D--------------------------|
A-777777-1010-33333-000----|
E--------------------------|

X3

G----------------------|
D----------------------|
A-777777-1010-33333----|
E----------------------|
CHORUS
G--------------------------|
D--------------------------|
A-777777-1010-33333-000----|
E--------------------------|

X4

PRE VERSE
G-------------------|
D-------------------|
A-7-7-1010-3-3-00---|
E-------------------|

X2

VERSE
G--------------------------|
D--------------------------|
A-777777-1010-33333-000----|
E--------------------------|

X3

G----------------------|
D----------------------|
A-777777-1010-33333----|
E----------------------|
CHORUS

57

58
G--------------------------|
D--------------------------|
A-777777-1010-33333-000----|
E--------------------------|

X4

BREAK
G-------------|
D-------------|
A-3-3-3/7-7-7-|
E-------------|
G---------------|
D---------------|
A-3-3-3/7/10----|
E---------------|

X3

G-------------------------------------------------------------|
D-------------------------------------------------------------|
A-3-3-3-7-7-7-9-9-9-10-10-10-10101010101010101010101010101010-|
E-------------------------------------------------------------|
G-----------------------------------------|
D-----------------------------------------|
A-1313131310101010777755553333333333333333
E----------------------------------------LONG CHORUS
G--------------------------|
D--------------------------|
A-777777-1010-33333-000----|
E--------------------------|

X8

G------------------------|
D------------------------|
A-7-7-7-1313131313131313-|
E------------------------|
OUTRO
G--------------------------|
D--------------------------|
A-777777-1010-33333-000----|
E--------------------------|

X3

G-------------------------|
D-------------------------|
A-777777-1010-33333-000-7-|(hold)
E-------------------------|

58

59

10.Glamorous Indie rock and roll
Tuning: Standard (E A D G)
Verse
G-----8-8------------------------------------------------------------D-6h8-----8-8-8------------------------10-10-------------------------A---------------6/0---------------8h10-------10-10-10----------------E-----------------------------------------------------8/0------------G----------------------------------------------------------------D---------------------------------6h8-8-8-8-8-8-8/0--------------A-6h8-8-8-8-8-8-8/0----------------------------------------------E----------------------------------------------------------------Chorus
G----------------------------------------------------------------D----------------------------------------------------------------A-6-6-6-6-6-6-6-6-6-6-6-6-6-6-8-8-3-3-3-3-3-3-3-3-3-3-3-3-3-3-3-3E----------------------------------------------------------------G----------------------------------------------------------------D----------------------------------------------------------------A--------/8-8-8-8------------------------------------------------E-1-1-1-1---------1-1-1-1-1-1-1-1-6-6-6-6-6-6-6-6-6-6-6-6-6-6-6-6Bridge
G----------------------------------------------------------------D----------------------------------------------------------------A---------------------------------3-3-3-3-3-------1-1-1-1-3-1-3--E-1-1-1-1-1-------4-4-4-4-4--------------------------------------G----------------------------------------------------------------D----------------------------------------------------------------A---------------------------------3-3-3-3-3-------1-1-1-1-1-1-3--E-1-1-1-1-1-------4-4-4-4-4--------------------------------------G----------------------------------------------------------------D----------------------------------------------------------------A-8-8-8-8-8-8-8-8-----------------3-3-3-3-3-3-3-3----------------E-----------------4-4-4-4-4-4-4-4-----------------6-6-6-6-6-6-6-6G----------------------------------------------------------------D-------------------------------------------------------5-6-5-6-7A-----------------------------------------5---5-6-8-6-8----------E-4-4-4-4-4-4-4-4-4-4-4-4-4-4-4-4-6-5-6-8---8--------------------G----------------------------------------------------------------D-9~-----------------------------------------6---4-6-4-6---6--4-6A----------------------------------------------------------------E---------------------------------4~-----------------------------G----------------------------------------------------------------D-----------------4-4--------------------------------------------A-4-4-6-6-7-7-6-6-----4-4----------------------------------------E-------------------------2~----2/7---7--6-7-6-7---7h9p7-4-------G----------------------------------------------------------------D-6---4-6-4-6---6--4-6-----------------4-4-----------------------A----------------------4-4-6-6-7-7-6-6-----4-4-------------------E----------------------------------------------2~----------------Final Verse
G----------------------------------------------------------------D-----9-9-----------------------------6-6------------------------A-7h9-----9-9-9-------------------4h6-----6-6-6------------------E---------------7/0-----------------------------4/0---------------

59

60
G-----6-6--------------------------------------------------------D-4h6-----6-6-6--------------------------------------------------A---------------4/0---------------7h9-9-9-9-9-9-9/0--------------E----------------------------------------------------------------Final Chorus
G----------------------------------------------------------------D----------------------------------------------------------------A-6-6-6-6-6-6-6-6-6-6-6-6-6-6-8---3-3-3-3-3-3-3-3-3-3-3-3-3-3-3-3E----------------------------------------------------------------G----------------------------------------------------------------D---------------------------------8-8-8-8-8-8-8-8-8-8-8-8-8-8-8-8A--------/8-8-8-8--------/8-8-8-8--------------------------------E-1-1-1-1---------1-1-1-1----------------------------------------G-------------------------8-8-8-8-----------------5-5-5-5-5-5-5-5D----------------------------------------------------------------A-6-6-6-6-6-6-6-6-6-6-6-6--------3-3-3-3-3-3-3-3-----------------E----------------------------------------------------------------G----------------------------------------------------------------D----------------------------------------------------------------A----------------------------------------------------------------E-1-1-1-1-1-1-1-1-1-1-1-1-1-1-1-1-6-6-6-6-6-6-6-6-6-6-6-6-6-6-6-6Outro
G--8-8-8-8-7-7-7-7-5-5-5-5---------------------------------------D--------------------------8-8-8-8-------------------------------A----------------------------------6~----------------------------E----------------------------------------------------------------Song Order
Verse
x1
Chorus x1
Verse
x1
Bridge x1
Final Verse
Final Chorus
Outro
x1

x1
x1

60

61

11.Who Let you go
No Bass

61

62

12.The Ballad of Michael Valentine
No Bass

62

63

13.Ruby, Don't Take Your Love To Town
No Bass

63

64

14.Daddy's Eyes
No Bass

64

65

15.Sam's Town (Abbey Road Version)
No Bass

65

66

16.Romeo and Juliet
No Bass

66

67

17.Change your mind
Tuning: Standard (E A D G)
Intro
G----------------------------------------------------D----------------------------------------------------A--2888-888-888-888-888-888-888-888-8---------------E--------------------------------------1010-101010-10G-------------------------D-------------------------A-------------------------E-66-666-6-88-888-888-8888Main Riff(x2)
G----------------------------------------------------D----------------------------------------------------A--888-888-888-888-888-888-888-888-8-----------------E--------------------------------------1010-101010-10G-------------------------D-------------------------A-------------------------E-66-666-6-88-888-888-8888Chorus
G-----------------------------------D-----------------------------------A-----------------------------------E-6666666666666666-8888888888888888-G-----------------------------------D-----------------------------------A-88-888-888-888-888-888-888-888----E-----------------------------------Main Riff(x2)
Chorus 2
G-----------------------------------D-----------------------------------A-----------------------------------E-6666666666666666-8888888888888888-G-----------------------------------D-----------------------------------A-88-888-888-888--------------------E----------------11-111-111-111-----Bridge(x2) Play up until the 7's the first run, then play the 7's instead of the 10's and 8's the
second time.
Repeat
G-------------------------|--------------D-------------------------|--------------A----------------88-888-8-|--------------E-1010-101010-10----------|1010-101010-10G-----------|----------------------------D-----------|----------------------------A--88-888-8-|-7777777777777777-----------E-----------|-----------------------------

67

68
Chorus 2
Verse(x2)
Chorus 3
G------------------------------------ (x2)
D-----------------------------------A-----------------------------------E-6666666666666666-8888888888888888-G-----------------------------------D-----------------------------------A-88-888-888-888------------------8~E----------------11-111-111-111-1---

68

69

18.Mr Brightside (Jacques Lu Cont's thin white duke remix)
No Bass

69

70

Day and Age

Track Name
1.Losing Touch
2.Human
3.Spaceman
4.Joy Ride
5.Dustland Fairytale
6.This is Your Life
7.I Can't Stay
8.Neon Tiger
9.The World That We Live In
10. Goodnight, Travel Well
11.A Crippling Blow
12. Forget About What I Said
13.Tidal Wave
14.Human (Remix)
70

Page Number

71

1.Losing Touch
Tuning: Standard (E A D G)
/=slide
h=hammer on
p=pull off
x=times an amount
Intro at 00:13
(16 = sixteen)
------------------------------|
----------------------6-6-----|
-44444444/1616161616----------|
------------------------------|
Verse x4
-------------------------------------------------4-4---|
--6-6-4-6/1-4h6-6-6-4-6--------------------------------|
-----------------------024-4-4-2-4/1-2h4-4-4-2-4-------|
-------------------------------------------------------|
Chorus
---------------------------------------------------|
----------------------------------6-6--------------|
-7x8--2x8-----------7x8--2x8-----------------------|
-----------2x8--4x8----------2x14------------------|
Verse x3
Chorus x1 (but don't play the final -6-6) play the 4 till next part.
Bridge part 1
x2
-----------------------------------------------------|
---------------------------4-6-6-4-6--6-6------------| Play the verse like part
--2---2-----4---4-----2x16---------------------------|only the second time.
-------2---------4-----------------------------------|
Bridge part 2 x2
-----------------------------------------------------|
--6-6-4-6/1-6-6-4-6----------------------------------|
-------------------------4-4-2-4/1-4-4-2-4--2-4------|
-----------------------------------------------------|
Pause
Come in at 2:35
--------------------------------------------|
--------------------------------------------|
--7x8-/-2x8-----------7x8-/-2x8-------------|
------------2x8--4x8------------2x8-/-14x8--|
Play the Bridge part 1 till the end. Through the guitar solo.
You can add fills like
-------------------------------------------------------|
-------------------------------------------------------|
--2------4-------2220222022202020----------------------|
-----2-------4-----------------------------------------|

71

72

2.Human
Tuning: Standard (E A D G)
Come in at 1:06
Chorus
-------------------------------------------------|
-------------------------------------------------|
-------5 x8--6-x8-----------------5-x8-----------|
--6 x8------------6-x8--8-x8--6-x8------8-x8-----|

Verse
------------------------------------------------|
------------------------------------------------|
--------5-x8--6-x8------8-x8-10-x8--6-x8--8-x8--|
--6-x8-------------6-x8-------------------------|

Pre-Chorus
------------------------------------------------|
------------------------------------------------|
--------5-x8--6-x8--10-x8--6-x16--8-x16---------|
--6-x8------------------------------------------|
Chorus x2
Bridge
------------------------------------------------|
------------------------------------------------|
--------------8-x8--10-x8--5-x16--8-x16---------|
--6-x8--8-x8------------------------------------|

Rest
E---12/1---Chorus x1
The chorus changes a little.
------------------------------------------------|
------------------------------------------------|
--------5-x8--6-x8--------------6-x24-----------|
--6-x8--------------6-x8--8-x8------------------|
Go back to the normal chorus x1

and end with

E----8/1------

72

73

3.Spaceman
Tuning: Standard (E A D G)
The letters refer to the higher frets (to keep the bars looking neat). A is fret 10, B
11, C is 12 and so on. Hope it isn't too confusing, but that way you can see how the
are laid out.
Intro (Bass starts with oh, oh, oh...)
G
D
A
E

--------|--------|--------|--------|--------|--------|--------|--------|
--------|--------|--------|--------|--------|--------|--------|--------|
77777777|44444444|77777777|--------|44444444|44444444|--------|--------|
--------|--------|--------|55555555|--------|--------|44444444|77777777|

Verse
G
D
A
E

--------|--------|--------|--------|--------|--------|--------|--------|
--------|--------|--------|------9A|--------|--------|--------|--------|
77777777|77777777|77777777|777777--|--------|--------|--------|-------9|
--------|--------|--------|--------|77777777|99999999|77777777|7777777-|

G
D
A
E

--------|--------|--------|--------|--------|--------|--------|--------|
--------|--------|--------|------9A|--------|--------|--------|--------|
77777777|77777777|77777777|777777--|--------|--------|--------|--------|
--------|--------|--------|--------|77777777|99999999|77777777|77777777|

Chorus
G
D
A
E

--------|--------|--------|--------|--------|--------|--------|--------|
--------|--------|--------|--------|--------|--------|--------|--------|
CCCCCCCC|EEEEEEEE|GGGGGGGG|BBBBBBBB|CCCCCCCC|EEEEEEEE|GGGGGGGG|AAAAAAAA|
--------|--------|--------|--------|--------|--------|--------|--------|

G
D
A
E

--------|--------|--------|--------|--------|--------|--------|--------|
--------|--------|--------|--------|--------|--------|--------|--------|
--------|--------|--------|--------|--------|--------|--------|--------|
55555555|77777777|88888888|99999999|77777777|77777777|77777777|77777777|

G
D
A
E

--------|--------|--------|--------|--------|--------|--------|--------|
--------|--------|--------|--------|--------|--------|--------|--------|
77777777|44444444|77777777|--------|44444444|44444444|--------|--------|
--------|--------|--------|55555555|--------|--------|44444444|77777777|

Verse
G
D
A
E

--------|--------|--------|--------|--------|--------|--------|--------|
--------|--------|--------|------9A|--------|--------|--------|--------|
77777777|77777777|77777777|777777--|--------|--------|--------|-------9|
--------|--------|--------|--------|77777777|99999999|77777777|7777777-|

G
D
A
E

--------|--------|--------|--------|--------|--------|--------|--------|
--------|--------|--------|------9A|--------|--------|--------|--------|
77777777|77777777|77777777|777777--|--------|--------|--------|--------|
--------|--------|--------|--------|77777777|99999999|77777777|77777777|

Chorus
G
D
A
E

--------|--------|--------|--------|--------|--------|--------|--------|
--------|--------|--------|--------|--------|--------|--------|--------|
CCCCCCCC|EEEEEEEE|GGGGGGGG|BBBBBBBB|CCCCCCCC|EEEEEEEE|GGGGGGGG|AAAAAAAA|
--------|--------|--------|--------|--------|--------|--------|--------|

73

74
G --------|--------|--------|--------|--------|--------|--------|--------|
D --------|--------|--------|--------|--------|--------|--------|--------|
A --------|--------|--------|--------|--------|--------|--------|--------|
E 55555555|77777777|88888888|99999999|77777777|77777777|77777777|77777777|
G
D
A
E

--------|--------|--------|--------|--------|--------|--------|--------|
--------|--------|--------|--------|--------|--------|--------|--------|
77777777|44444444|77777777|--------|44444444|44444444|--------|--------|
--------|--------|--------|55555555|--------|--------|44444444|77777777|

Solo
G
D
A
E

--------|--------|--------|--------|--------|--------|--------|--------|
--------|--------|--------|----4-6-|--------|--------|--------|----4-6-|
4------4|-------4|4------4|4-7-----|4------4|-------4|4------4|4-7-----|
--74747-|7474747-|--74747-|--------|--74747-|7474747-|--74747-|--------|

G
D
A
E

--------|--------|--------|--------|--------|--------|--------|--------|
--------|--------|--------|----4-6-|--------|--------|--------|--------|
4------4|-------4|4------4|4-7-----|7-7-7-7-|7-747542|4------4|--------|
--74747-|7474747-|--74747-|--------|---7-7-7|-7------|--74747-|5-4-2-4-|

G
D
A
E

--------|--------|--------|--------|--------|--------|--------|--------|
--------|--------|--------|--------|--------|--------|--------|--------|
4------4|-------4|--------|--------|--------|--------|--------|--------|
--74747-|7474747-|5-------|7-------|--------|--------|--------|--------|

G
D
A
E

--------|--------|--------|--------|
--------|--------|--------|--------|
--------|--------|--------|--------|
--------|--------|5-555555|77777777|

Outro
G
D
A
E

--------|--------|--------|--------|--------|--------|--------|--------|
--------|--------|--------|--------|--------|--------|--------|--------|
77777777|66666666|--------|--------|--------|--------|--------|--------|
--------|--------|55555555|44444444|77777777|99999999|55555555|77777777|

G
D
A
E

--------|--------|--------|--------|--------|--------|--------|--------|
--------|--------|--------|--------|--------|--------|--------|--------|
77777777|66666666|--------|--------|--------|--------|--------|--------|
--------|--------|55555555|44444444|77777777|99999999|55555555|77777777|

G
D
A
E

--------|--------|--------|--------|--------|--------|--------|--------|
--------|--------|--------|--------|--------|--------|--------|--------|
77777777|44444444|77777777|--------|44444444|44444444|--------|--------|
--------|--------|--------|55555555|--------|--------|44444444|77777777|

G
D
A
E

--------|--------|--------|--------|--------|--------|--------|--------|
--------|--------|--------|--------|--------|--------|--------|--------|
77777777|44444444|77777777|--------|44444444|44444444|--------|--------|
--------|--------|--------|55555555|--------|--------|44444444|77777777|

Song fades but bass ends here.

74

75

4.Joy Ride
Tuning: Standard (E A D G)
Intro/verse - play till 0:42
--------------------------------------------------------------------|
--7-7-5h7-7-5---5-----------------7-7-5h7-7-5---5-------------------|
--------------7---5-5-7p5-5-7-8---------------7---5-5-7p5-5-7-0-----|
--------------------------------------------------------------------|
Chorus: listen to how the 3's are played for the pattern
------------------------------------------------------------------------|
-----------------3 3333-3-3-3333-3-3----------------3-3333-3-5-5555-5---|
-------------------------------------------5-53-3-----------------------|
-3-3-3-3-5-5-5-5---------------------3-35-5-----------------------------|
Pause for drum fill
Play verse through the saxophone solo
After solo play verse till 1:19
Pause till 1:26 and play
----------|
-----57---|
--578-----|
----------|
Pause again till chorus at 1:35
Play chorus twice but the change final 5's to 2's on the same string
Bridge
------------------------------------------7-7777-7-7-7777-7-7----------------|
--5x8--2x8--7x8--3x8--5x8--2x8--7x8------------------------------------------|
-------------------------------------5x8---------------------8-8888-8-8-8888-|
-----------------------------------------------------------------------------|
Chorus x1
Then play
--7-7777-7-7-------------7-7777-7-7--------------|
--------------5-5555-5-5------------3-333-3-3----|
-------------------------------------------------|
-------------------------------------------------|
-5-5555-5-5-----------------------------------|
------------7-7777-7-7-3-3333-3-3-2-2222-2-2--|
----------------------------------------------|
----------------------------------------------|
-------------------------7-7777-7-7--------------|
--7-7777-7-7-3-3333-3-3-------------5-5555-5-5---|
-------------------------------------------------|
-------------------------------------------------|
--5-5555-5-5-------------5-5555-5-5---------------|
-------------7-7777-7-7-------------3-3333-3-3--7-|
--------------------------------------------------|
--------------------------------------------------|

75

76

5.A Dustland Fairytale
Tuning: Standard (E A D G)
G-Enter at-------/01:08-----------/----------------/01:15-----------/
D-01:08----------/----------------/----------------/----------------/
A----------------/5555555555555555/----------------/--------2222----/
E----------------/----------------/5555555533333333/55555555----3333/

G----------------/----------------/----------------/----------------/
D----------------/----------------/----------------/----------------/
A5555555555555555/5555555555555544/2222222222222200/--------2222----/
E----------------/----------------/----------------/33333333----3333/

G01:33-----------/----------------/------------------------/
D----------------/9-9-9-9-9-9-9-9-/------------------------/
A5555555555555555/----------------/10-10-10-10-10-10-10-10-/
E----------------/----------------/------------------------/
G------------------------/01:46-----------/----------------/
D------------------------/----------------/----------------/
A11-11-11-11-------------/0000000000000000/2222222222222222/
E------------------------/----------------/----------------/

G----------------/----------------/02:01-----------/----------------/
D----------------/----------------/----------------/----------------/
A4444444444444444/55555555--------/------------1111/2222222244444444/
E----------------/--------22222222/333333332222----/----------------/

G----------------/02:12-----------/----------------/----------------/
D----------------/----------------/----------------/----------------/
A55555555--------/0000000000007777/555555555555----/------------4444/
E--------22222222/----------------/------------5555/333333333333----/

G----------------/----------------/----------------/----------------/
D----------------/----------------/----------------/----------------/
A2222222222220000/555555555555----/----------------/------------4444/
E----------------/------------2222/3333333333335555/333333333333----/

G----------------/----------------/----------------/02:48-----------/
D----------------/----------------/----------------/----------------/
A2222222266666666/77777777777777--/----------------/0000000000000000/
E----------------/--------------22/333333333333----/----------------/

G----------------/----------------/----------------/----------------/
D----------------/----------------/----------------/----------------/
A2222222222222222/4444444444444444/55555555--------/------------1111/
E----------------/----------------/--------22222222/333333332222----/

76

77
G----------------/----------------/03:12-----------/----------------/
D----------------/----------------/----------------/----------------/
A2222222244444444/55555555--------/------------0000/5555555555555555/
E----------------/--------22222222/333333333333----/----------------/
G----------------/03:23-----------/----------------/
D----------------/----------------/----------------/Guitar Outré
A5555555555555555/5555555555555555/555555555-------/
E----------------/----------------/----------------/

77

78

6.This Is Your Life
Tuning: Standard (E A D G)
INTRO (x4)
G-------------------------------------------------------------------|
D-------------------------------------------------------------------|
A-8-888-888-888-88---5-555-555-555-55-------------------------------|
E-------------------------------------5-555-555-555-55-6-666-888-88-|
Verse 1 starts like this
G---------------------------------------|
D---------------------------------------|
A-8-8-8-8---5-5-5-5---------------------|
E---------------------5-5-5-5---6-6-8-8-|
MAIN RIFF
Repeat until Bridge
G-------------------------------------------------------------------|
D-------------------------------------------------------------------|
A-8-888-888-888-88---5-555-555-555-55-------------------------------|
E-------------------------------------5-555-555-555-55-6-666-888-88-|
BRIDGE
Joins in at 2.27
G-------------------------------------------------------------------------|
D-------------------------------------------------------------------------|
A-------------------------------------------------------------------------|
E-3-333-333-333-33---6-666-666-666-66----8-888-888-888-888-888-888-888-88-|
Repeat Main Riff

78

79

7.Can’t Stay
No Bass

79

80

8.Neon Tiger
Tuning: Standard (E A D G)
Intro:
------------------------|
-------66-44-124--------|
-44-22------------------|
------------------------|
Verse
-----------------------------------------------|
---------------124-----------------------------|
--2--2-----2-2-----2--2-----2-2-/1414----------|
---------2----------------2--------------------|
-----------------------------------------------|
--2--2-----2-2--124----------------------------|
---------2-----------2--2-----2-2--1414\-------|
----------------------------2------------------|
Chorus
----------------------------------------------------------------------|
-4444-6666-2222------4444------66666666-2222-6666-44444444-2222-4444--|
--------------------------2222----------------------------------------|
----------------2222--------------------------------------------------|
Pre-Chorus
------------------------|
-----------------124----|
-2--2-/1414-2--2--------|
------------------------|
Repeat verse x1
Chorus 2 (only varies from the first at the end)
----------------------------------------------------------------------------|
--4444-6666-2222------4444------66666666-2222-6666-44444444-2222-4444-------|
---------------------------2222---------------------------------------4444--|
----------------2222--------------------------------------------------------|
Bridge
-4-4-4-4-4-4-4-4-4-4-4-4-4-4-4---4-4-4-4-4-4-4-4-4-4-4-4-4-4-4---|
-----------------------------------------------------------------|
-------------------------------2-------------------------------2-|
-----------------------------------------------------------------|
--------------------------------------------------------------------------|
-2-2-2-2-2-2-2-2-2-2-2-2-2-2-2-2------------------------------------------|
---------------------------------2-2-2-2-2-2-2-2/-14-14-14-14-14-14-14-14-|
--------------------------------------------------------------------------|
-----------------------------------------------------------------|
-44444444-22222222-----------------------------------------------|
------------------222222222222222222222222/1414141414141414------|
-----------------------------------------------------------------|
Chorus 3/ Outro
---------------------------------------------------------------------|
-4444-6666-2222------4444------66666666-2222-6666-44444444-2222------|
--------------------------2222----------------------------------4444-|
----------------2222-------------------------------------------------|

80

81
---------------------------------------------------------------------------|
-11111111 -2222------6666------2-------------------------------------------|
---------------4444------4444------4----2----1------------------1---2------|
--------------------------------------------------4----2----4--------------|

Fade out with 2
-----------------|
-----------------|
-2-2-2-2-2-2-2---|
-----------------|

81

82

9. The World We Live In
No Bass

82

83

10.Goodnight, Travel Well
No Bass

83

84

11.A Crippling Blow
No Bass

84

85

12.Forget About What I Said
Tuning: Standard (E A D G)
INTRO - bass enters at 0.13
G-3333--------------------|
D------44443333-----------|
A---------------4643434---|
E-----------------------4-|
VERSE x4
G--------------------------------------|
D--------------------------------------|
A-11-111-1-444---------------------(4)-|
E-------------111-22-222-2-444-111-----|
CHORUS
G-------------------------------------|
D-------------------------------------|
A-44444444-66666666-------------------|
E-------------------22222222-22222222-|
G-------------------------------------------|
D-------------------------------------------|
A-----------------66-44-33-99999999-8888888-|
E-66666-9-8-6---44--------------------------|
G----------------------------------|
D----------------------------------|
A-44444444-66666666-----4----4-----|
E-------------------2222-2222-2222-|
G-------------------------------------------|
D-------------------------------------------|
A-----------------66-44-33-99999999-8888888-|
E-66666-9-8-6---44--------------------------|

VERSE 2
G---------------------|
D---------------------|
A-REST----------------|
E------22-222-444-111-|
x3
G--------------------------------------|
D--------------------------------------|
A-11-111-1-444---------------------(4)-|
E-------------111-22-222-2-444-111-----|

Repeat Chorus

BRIDGE
G------------D------------A-9~-6~-4~---E---------6-~-

85

86
G-------------------------------------------------------|
D-------------------------------------------------------|
A--------------6-66-66-66-6-----------------------------|
E-2-22-22-22-2--------------4-44-44-44-4444444444444444-|
Repeat Chorus then end on
G-------------------------------------------|
D-------------------------------------------|
A-----------------66-44-33-99999999-8888888-|
E-66666-9-8-6---44--------------------------|

86

87

13. Tidal Wave
No Bass

87

88

14.Human (Remix)
No Bass

88

89

Thank You for buying/downloading this book I have filtered the internet
and my music ability to check the music and bring you this book. At the
moment in this series of Complete band books. There is:

89