You are on page 1of 1

Run Honey Run - John Martyn

Capo on 9th fret (as on album) or any other fret you prefer.
Use only thumb and index finger for picking.
tune to DADDAD
D-----0----------|----------------|----------------|------0---------|
A----------------|--------5p3--0--|-------0h2-3---0|----------------|
D-----------0----|---0------------|---0------------|---0-------0----|
D-----0--------0-|----0----------0|----0--------0--|----0-----------|
A----------------|----------------|----------------|------------5s3-|
D-0------0-------|0---------0-----|0--------0------|-0-------0------|
D----------------|----------------|----0-----------|--------0-------|
A----------------|---------------0|----------------|----------------|
D---5-------5----|--5--------5----|----------0-----|---0---------0--|
D-------0h2-----2|-------0h2------|----0---------0-|-----0---------0|
A-----3-------3--|----3--------3s5|----------------|----------------|
D-0-------0------|0--------0------|-0------0-------|0---------0-----|
Verse
D----------------|--------0-------|----------------|--------0-------|
A----------------|----------------|----------------|----------------|
D----—0----0----0|----0--------0--|-----0----0----0|----0-------0--0|
D—--0---------0--|------0--------0|---0---------0--|------0-------0-|
A----------------|----------------|----------------|----------------|
D-5-----3--------|-0---------0----|5-------3-------|-0--------0-----|
D----------------|----------------|----------------|-0--------------|
A--------------0-|-----0---------0|-------0--------|----------------|
D--0-0-----0-----|---0-------0----|--0---------0---|----------------|
D---0--------0---|----0--------0--|----0----------0|----------------|
A----------------|----------------|----------------|----------------|
D-5-----3--------|-5-------3------|0--------0------|----0-----------|

Well I wish I could think of some cliche to mouth
To make our parting seem less sad
But if I told you lies or promised you the moon
The truth would come trickling from my eyes
So run honey run, and hide in the wind
And never stop to look inside your mind
Well I wish I could wash all my weeping blues away
And watch them disappear on morning tide
Oh, but I seek after sword, after sounds of the sea
A charm forever round my mind
And I wish I could fly like a bat from a cave
Through the darkness of my ignorance to light
I'd forever live on the echoes of our love
And die like some star burning bright