You are on page 1of 3

------------------------------------------------------------------------------Hillsong – The Difference

------------------------------------------------------------------------------Tabbed by:
E-mail:
Tuning:
Intro
Bridge, White boost on full vol
e|---------------------------------------------------------------------------|
B|---------------------------------------------------------------------------|
G|---------------------------------------------------------------------------|
D|---7-x6-9-7-9-7------------------------------------------------------------|
A|---0----0-0-0-0------------------------------------------------------------|
E|---------------------------------------------------------------------------|
Verse
Bridge, White boost on full vol
e|---------------------------------------------------------------------------|
B|--10-9---10-7--------------------------------------------------------------|
G|--9--9--11--7--------------------------------------------------------------|
D|--7--7--9---7--------------------------------------------------------------|
A|---------------------------------------------------------------------------|
E|---------------------------------------------------------------------------|
Pre chorus
Bridge, White boost on full vol
e|---------------------------------------------------------------------------|
B|--------7---10-9-7----------7---10-9-7-------------------------------------|
G|----7-7---7--------x2---9-9---7-----------x2-------------------------------|
D|---------------------------------------------------------------------------|
A|---------------------------------------------------------------------------|
E|---------------------------------------------------------------------------|
Chorus (Lead), rhythm just play norm A, D, F#m, D
e|---------------------------------------------------------------------------|
B|----9-----8-5--------------------------------------------------------------|
G|------etc------------------------------------------------------------------|
D|----7-----6-2--------------------------------------------------------------|
A|---------------------------------------------------------------------------|
E|---------------------------------------------------------------------------|
Bridge vol on 7
e|---9—x6-7—x4-9------9---x6-7—--9b10r9---Then go into mute then power strum-|
B|---10---10---10--7--10-----10----------------------------------------------|
G|---x----------------x------------------------------------------------------|
D|---x----------------x------------------------------------------------------|
A|---------------------------------------------------------------------------|
E|---------------------------------------------------------------------------|

------------------------------------------------------------------------------Open Up Our Eyes – Elevation Worship ------------------------------------------------------------------------------Tabbed by: E-mail: Tuning: e|---------------------------------------------------------------------------| B|---------------------------------------------------------------------------| G|---------------------------------------------------------------------------| D|---------------------------------------------------------------------------| A|---------------------------------------------------------------------------| E|---------------------------------------------------------------------------| e|---------------------------------------------------------------------------| B|---------------------------------------------------------------------------| G|---------------------------------------------------------------------------| D|---------------------------------------------------------------------------| A|---------------------------------------------------------------------------| E|---------------------------------------------------------------------------| e|---------------------------------------------------------------------------| B|---------------------------------------------------------------------------| G|---------------------------------------------------------------------------| D|---------------------------------------------------------------------------| A|---------------------------------------------------------------------------| E|---------------------------------------------------------------------------| e|---------------------------------------------------------------------------| B|---------------------------------------------------------------------------| G|---------------------------------------------------------------------------| D|---------------------------------------------------------------------------| A|---------------------------------------------------------------------------| E|---------------------------------------------------------------------------| e|---------------------------------------------------------------------------| B|---------------------------------------------------------------------------| G|---------------------------------------------------------------------------| D|---------------------------------------------------------------------------| A|---------------------------------------------------------------------------| E|---------------------------------------------------------------------------| e|---------------------------------------------------------------------------| B|---------------------------------------------------------------------------| G|---------------------------------------------------------------------------| D|---------------------------------------------------------------------------| A|---------------------------------------------------------------------------| E|---------------------------------------------------------------------------| e|---------------------------------------------------------------------------| B|---------------------------------------------------------------------------| G|---------------------------------------------------------------------------| D|---------------------------------------------------------------------------| A|---------------------------------------------------------------------------| E|---------------------------------------------------------------------------| e|---------------------------------------------------------------------------| B|---------------------------------------------------------------------------| G|---------------------------------------------------------------------------| D|---------------------------------------------------------------------------| A|---------------------------------------------------------------------------| E|---------------------------------------------------------------------------| ************************************ | | | | | | | | | / \ h p ~ + x b pb slide up slide down hammer-on pull-off vibrato harmonic Mute note Bend Pre-bend .

| br Bend release | pbr Pre-bend release | brb Bend release bend ************************************ .