You are on page 1of 23

Sweep

Picking
I

Tcnica de Guitarra

Sweep Picking I

Assista a aula completa em:


http://www.cifraclub.tv/v1275

Sweep
Picking
I

Sumrio
Introduo
Apresentao da Apostila............................................................................................ 03
Conhecendo o Sweep Picking.................................................................................... 03

Exerccios de Mo Direita
Explicao................................................................................................................... 06
Exerccios.................................................................................................................... 06

Sincronismo Entre as Duas Mos


Exerccios.................................................................................................................... 08

Arpejos
Definio.................................................................................................................... 11
Exerccios em trs cordas............................................................................................ 12

Misturando Tcnicas
Definio..................................................................................................................... 15
Palhetada Alternada e Sweep Picking......................................................................... 16
Palhetada Alternada, Sweep Picking e Ligados.......................................................... 18

Glossrio.............................................................................................................................21
Aulas relacionadas........................................................................................................... 22
Crditos............................................................................................................................... 23

Sweep
Picking
I

Introduo
O estudo da tcnica um componente importante no desenvolvimento do instrumentista e
alm de mais mobilidade com as mos, permite que o lado musical seja bem explorado. Gostaria de
dedicar esta prefao queles guitarristas que sempre buscam estudar melhorias na execuo do seu
instrumento mas sempre se deparam em muros grandes indagando: Porque? Para Que? Como faz?
Essa apostila um material complementar vdeo-aula sobre o assunto e aqui ns vamos
estudar o Sweep Picking de forma mais detalhada, preparando bem para a prxima aula do curso.
Veremos que o Sweep uma tcnica simples de ser entendida mas requer boas horas de treino
diariamente para que a melhora na sua execuo seja perceptvel. Durante todo o tempo que voc
passar estudando a tcnica, procure comear sempre tocando as progresses lentamente e depois v
aumentando a velocidade. A repetio leva perfeio!
Certa vez um aluno me perguntou se era mesmo necessrio estudar essa tcnica e se era bom
fazer as frases com uma alta velocidade, durante sua pergunta ele utilizou o argumento de que nem
todos guitarristas famosos sweepam. Eu respondi que era necessrio sim! Quanto ao argumento
eu lhe disse que se fossemos pensar assim, colocando em considerao que nem todos sweepam,
temos que levar em conta tambm que no so todos que utilizam o tapping no fraseado, o bend
nem sempre utilizado, o slide e os ligados tambm no, e no caso do Stanley Jordan, nem palheta
ele utiliza. O estudo da tcnica deve ser visto como algo expansivo na vida de um msico, tudo que
estudamos e dominamos nos d liberdade para criar e executar depois. No sempre que vamos
encontrar momentos oportunos e no sempre que vamos saber encaixar uma frase com sweep
picking em uma msica, ou o tapping, por exemplo. Mas caso no tenhamos conhecimento e
domnio da tcnica ns nunca vamos encaix-la em momento nenhum e em msica nenhuma! O
estudo dessa tcnica, assim como de qualquer outra, vai permitir que voc tenha novas
possibilidades ao executar as notas e as frases, tornando cada vez mais suas limitaes menores.
Estude o Sweep Picking com bastante disciplina, dedicao e ateno!
Conhecendo o Sweep Picking
O Sweep Picking auxilia no desenvolvimento do guitarrista e possibilita novas situaes na
hora de tocar as notas, pois uma tcnica que trabalha o movimento da palheta quando h uma
mudana de corda na sequncia das notas.
A tcnica consiste em aproveitar o movimento anterior da palhetada (pra cima ou pra baixo)
e tocar o primeiro toque da prxima corda (caso no seja o nico) com a mesma direo de
palhetada.

A imagem acima mostra as seis cordas da guitarra sendo tocadas em uma nica direo, sempre pra baixo.

Sweep
Picking
I

Esta imagem mostra o sweep sendo realizado a cada troca de corda (palhetas em destaque)

Fique atento palavra APROVEITAR, pois ela exprime o real sentido do Sweep Picking. H
uma diferena enorme entre palhetar s para baixo e fazer o sweep picking. Resumindo, quando ns
palhetamos s para baixo, a todo momento ns enfatizamos o ataque nas cordas, j no sweep no,
ns tocamos de forma direta, sem fazer o movimento de um novo ataque.
Ao aproveitar a direo da palhetada ns ganhamos mais agilidade e possibilitamos tocar
algumas frases que antes pareciam impossveis. Por exemplo, as tradicionais sequncias de arpejos
em que ns tocamos apenas uma nota por corda, so impossveis de serem executadas em um
andamento muito alto. Sim, eu disse impossveis pois at hoje no h relatos e nem provas de
algum que conseguiu fazer, por exemplo, uma sequncia de arpejo em sextina no andamento de
180 BPM utilizando palhetada alternada, j em sweep j.
O sweep alm de possibilitar uma maior velocidade em alguns casos tem como principal
ao facilitar e tornar mais simples a execuo das notas. Durante o curso ns vamos aprender
tambm a combinar as outras tcnicas com o Sweep Picking, para enriquecer ainda mais o fraseado.
Ns vamos abordar as duas principais formas de Sweep: O Sweep em arpejos e tambm em
sequncias que possuem no padro uma quantidade mpar de toques por corda (trs toques, cinco
toques e etc.).
importante que antes de acompanhar o contedo dessa apostila e da vdeo-aula sobre
Sweep Picking voc tenha uma boa bagagem no instrumento e tenha acompanhado tambm as aulas
sobre palhetada alternada, pois tudo proposto aqui ter relao com o que foi falado no curso de
palhetada alternada. Desde as formas de treino, uso do metrnomo e a escolha da palheta que voc
usa pra tocar pois diferentes tipos de palhetas causam diferentes formas de fazer o sweep e tambm
afetam na forma como ornamentamos a tcnica.
As palhetas podem ser basicamente divididas quanto ao seu tamanho (Grande ou Pequena e
tambm quanto ao formato da sua ponta (Pontiaguda ou Arredondada).

Cortex

Black Ice

0,70mm

1,10mm

SurePicks
0.76mm, 0.91mm e 1.17mm

Alm da palheta deve-se observar a forma como damos o ataque durante a execuo.

Sweep
Picking
I

Existem duas formas bsicas de dar o ataque nas cordas:

A primeira com a palheta reta, que em tese causa um ataque mais forte, mais definido, e
dependendo da forma da palheta, evita sujar o som por no arrastar na corda durante o atrito.

Com a pelheta inclinada, ns percebemos uma maior mobilidade da mo durante a


execuo, essa forma facilita principalmente quando existem outras tcnicas misturadas ao
sweep, como o harmnico artificial e a palhetada alternada.

Sweep
Picking
I

Ao estudar Sweep Picking voc deve estar ciente que a todo momento ter que pensar em
como economizar esforos. Para executar bem a tcnica necessrio ter plena conscincia e
controle de cada movimento para que esforos adicionais sejam poupados, a ponto de ficarmos com
um sincronismo perfeito entre as duas mos.
Durante todo o treinamento procure manter bastante discplina e comear fazendo os
exerccios lentos. A repetio muitas vezes ocasiona em uma execuo perfeita, portanto, a melhor
forma de treinar o Sweep Picking tendo pacincia e sempre que possvel utilizando o metrnomo
para tocar no tempo e dominar as subdivises do tempo. Dependendo do nvel em que voc est,
ser difcil comear treinando com o metrnomo e de acordo com o planejamento do curso, o uso
do metrnomo ser indispensvel a partir da segunda aula.
Mo Direita

Definimos a qualidade do Sweep Picking de acordo com a sincronia das duas mos, mas
para boa execuo da tcnica a mo direita impacta um pouco mais na qualidade do que a outra.
Desde j temos que comear treinando nossa mo direita para responder aos comandos de forma
correta.

Treine as sequncias num andamento mais lento e v aumentando aos poucos;


Tente fazer todos os ataques nas cordas de forma constante, ou seja, com o mesmo intervalo
de tempo entre todos.
Respeite as indicaes de sentido da palhetada, afinal, isto que define essa tcnica.

Exerccio A Duas Cordas:


E|----X--------X--------X-----X--------X--------X----|
B|-X--------X--------X-----------X--------X--------X-|
G|---------------------------------------------------|
D|---------------------------------------------------|
A|---------------------------------------------------|
E|---------------------------------------------------|





E|----X--X--------X--X--------X--X--------X--X-------|
B|-X--------X--X--------X--X--------X--X--------X----|
G|---------------------------------------------------|
D|---------------------------------------------------|
A|---------------------------------------------------|
E|---------------------------------------------------|

Exerccio B Trs Cordas:


E|-------X-----------X-----X-----------X-------------|
B|----X-----------X-----------X-----------X----------|
G|-X-----------X-----------------X-----------X-------|
D|---------------------------------------------------|
A|---------------------------------------------------|
E|---------------------------------------------------|



Palhetada
Alternada
I
E|-------X--X--------------X--X----------------------|
B|----X--------X--------X--------X-------------------|
G|-X--------------X--X--------------X----------------|
D|---------------------------------------------------|
A|---------------------------------------------------|
E|---------------------------------------------------|

E|-------X-----------X-----------X-----------X-------|
B|----X-----X-----X-----X-----X-----X-----X-----X----|
G|-X-----------X-----------X-----------X-----------X-|
D|---------------------------------------------------|
A|---------------------------------------------------|
E|---------------------------------------------------|

Exerccio C Quatro Cordas:


E|----------X-----------X-----X-----------X----------|
B|-------X-----------X-----------X-----------X-------|
G|----X-----------X-----------------X-----------X----|
D|-X-----------X-----------------------X-----------X-|
A|---------------------------------------------------|
E|---------------------------------------------------|


E|----------X-----------------X----------------------|
B|-------X-----X-----------X-----X-------------------|
G|----X-----------X-----X-----------X----------------|
D|-X-----------------X-----------------x-------------|
A|---------------------------------------------------|
E|---------------------------------------------------|

E|----------X--X--------------------X--X-------------|
B|-------X--------X--------------X--------X----------|
G|----X--------------X--------X--------------X-------|
D|-X--------------------X--X--------------------X----|
A|---------------------------------------------------|
E|---------------------------------------------------|

Exerccio D Cinco Cordas:


E|-------------X------------------------X-------------|
B|----------X------------------------------X----------|
G|-------X------------------------------------X-------|
D|----X------------------------------------------X----|
A|-X------------------------------------------------X-|
E|----------------------------------------------------|

Sweep
Picking
I
E|-------------X--X----------------------------------|
B|----------X--------X-------------------------------|
G|-------X--------------X----------------------------|
D|----X--------------------X-------------------------|
A|-X--------------------------X----------------------|
E|---------------------------------------------------|

E|-------------X-----------------------X-------------|
B|----------X-----X-----------------X-----X----------|
G|-------X-----------X-----------X-----------X-------|
D|----X-----------------X-----X-----------------X----|
A|-X-----------------------X-----------------------X-|
E|---------------------------------------------------|

Exerccio E Seis Cordas:


E|----------------X-----------------X----------------|
B|-------------X-----------------------X-------------|
G|----------X-----------------------------X----------|
D|-------X-----------------------------------X-------|
A|----X-----------------------------------------X----|
E|-X-----------------------------------------------X-|


E|----------------X--X-------------------------------|
B|-------------X--------X----------------------------|
G|----------X--------------X-------------------------|
D|-------X--------------------X----------------------|
A|----X--------------------------X-------------------|
E|-X--------------------------------X----------------|

E|----------------X----------------------------------|
B|-------------X-----X-------------------------------|
G|----------X-----------X----------------------------|
D|-------X-----------------X-------------------------|
A|----X-----------------------X----------------------|
E|-X-----------------------------X-------------------|

Sincronismo entre as Duas Mos

Hora de colocar as duas mos pra trabalharem juntas!


Nos exerccios a seguir vemos a necessidade de conciliar os movimentos das duas mos e
que, qualquer atraso de alguma das mos pode ocasionar em um som sujo e com notas indefinidas.
A dica agora lembrar sempre de economizar os movimentos!

Sweep
Picking
I

Exerccio A:
E|-------------------------------1-2-3---------------|
B|-------------------------1-2-3---------------------|
G|-------------------1-2-3---------------------------|
D|-------------1-2-3---------------------------------|
A|-------1-2-3---------------------------------------|
E|-1-2-3---------------------------------------------|

E|-3-2-1---------------------------------------------|
B|-------3-2-1---------------------------------------|
G|-------------3-2-1---------------------------------|
D|-------------------3-2-1---------------------------|
A|-------------------------3-2-1---------------------|
E|-------------------------------3-2-1---------------|

Exerccio B:
E|-------------------------------4-3-2---------------|
B|-------------------------1-2-3---------------------|
G|-------------------4-3-2---------------------------|
D|-------------1-2-3---------------------------------|
A|-------4-3-2---------------------------------------|
E|-1-2-3---------------------------------------------|

E|-1-2-3---------------------------------------------|
B|-------4-3-2---------------------------------------|
G|-------------1-2-3---------------------------------|
D|-------------------4-3-2---------------------------|
A|-------------------------1-2-3---------------------|
E|-------------------------------4-3-2---------------|

Exerccio C:
E|-------------------------------3-5-7---------------|
B|-------------------------3-5-6---------------------|
G|-------------------2-4-5---------------------------|
D|-------------2-3-5---------------------------------|
A|-------2-3-5---------------------------------------|
E|-1-3-5---------------------------------------------|

Exerccio D:
E|-----------------------7---------------------------|
B|-----------------7---6-----------------------------|
G|-----------7---6---5-------------------------------|
D|-----7---6---5-------------------------------------|
A|---6---5-------------------------------------------|
E|-5-------------------------------------------------|

Sweep
Picking
I

E|-----------------------7-5-------------------------|
B|-----------------7---6-----6---5-------------------|
G|-----------7---6---5---------7---6---5-------------|
D|-----7---6---5---------------------7---6---5-------|
A|---6---5---------------------------------7---6-----|
E|-5---------------------------------------------7---|

Exerccio E:
E|-----3-4---------5-6---------7-8---------9-10------|
B|---2-----3-----4-----5-----6-----7-----8------9----|
G|-1---------2-3---------4-5---------6-7----------8--|
D|---------------------------------------------------|
A|---------------------------------------------------|
E|---------------------------------------------------|

Exerccio F:
E|-------4-1-------------4-1-------------4-1---------|
B|-----3-----2---------3-----2---------3-----2-------|
G|---2---------3-----2---------3-----2---------3-----|
D|-1-------------4-1-------------4-1-------------4---|
A|---------------------------------------------------|
E|---------------------------------------------------|

Exerccio G:
E|-5-------------6-7----------------8-9--------------|
B|---6---------7-----8------------9-----10-----------|
G|-----7-----8---------9-------10----------11--------|
D|-------8-9-------------10-11----------------12-----|
A|---------------------------------------------------|
E|---------------------------------------------------|

E|----------10-11------------------------------------|
B|-------11-------12---------------------------------|
G|----12-------------13----11-------------------14---|
D|-13-------------------14----12-------------13------|
A|-------------------------------13-------12---------|
E|----------------------------------14-11------------|

E|----------14-15~~----------------------------------|
B|-------13------------------------------------------|
G|----12---------------------------------------------|
D|-11------------------------------------------------|
A|---------------------------------------------------|
E|---------------------------------------------------|

10

Sweep
Picking
I

Arpejos
Na terceira aula do curso sobre palhetada alternada ns aprendemos um pouco sobre arpejos
e nessa aula continuaremos a falar do assunto porm com um foco diferente. Nessa primeira
apostila do curso vamos aprender os fundamentos bsicos de arpejos e tambm vamos aprender a
executar alguns shapes de arpejos em trs cordas.
Arpejo o nome que damos quando executamos de forma sucessiva as notas que formam
um acorde. Por exemplo, se tocarmos em sequncia as notas D, Mi e Sol estaremos arpejando a
trade de D Maior (C), pois estas so as notas que formam esse acorde. Existem vrias categorias
de acordes e durante as primeiras aulas do curso de Sweep Picking ns vamos utilizar as mais
comuns: Trades e Ttrades, que foram explicadas anteriormente pelo Philippe Lobo em uma srie
de aulas especiais sobre Formao de Acordes. Nesta apostila que acomopanha a primeira vdeoaula do curso, ns vamos encontrar apenas os principais shapes das trades maiores e menores
simples em trs cordas:

Observem que alguns dos shapes no possuem a fundamental como a nota mais grave, que
dessa vez est na terceira corda. Isso bem comum quando falamos de arpejos, pois a
sucessividade dessas notas que causam a sensao que determinado acorde est sendo executado.
Clareando as idias, os arpejos podem ser executados a partir de qualquer nota do acorde.

11

Sweep
Picking
I

Sequncias de Arpejos em Trs Cordas

Agora que ns j conhecemos os principais shapes para arpejar acordes utilizando as trs
primeiras cordas da guitarra ns vamos procurar identificar os vrios acordes existentes, ou seja,
vamos transpor a tonalidade dos shapes acima e encontrar outros acordes. As progresses iniciais
sero todas feitas em cima de campos harmnicos maiores.
Exerccio A:
E|-----1---------3---------5---------7-----|
B|---3---3-----5---5-----6---6-----8---8---|
G|-2-------2-4-------4-5-------5-7-------7-|
D|-----------------------------------------|
A|-----------------------------------------|
E|-----------------------------------------|

E|-----8------------10-------------12------|
B|--10---10------12----12-------13----13---|
G|9---------9-10----------10-12----------12|
D|-----------------------------------------|
A|-----------------------------------------|
E|-----------------------------------------|

E|-----------------------------------------|
B|-13~~------------------------------------|
G|-----------------------------------------|
D|-----------------------------------------|
A|-----------------------------------------|
E|-----------------------------------------|

Exerccio B:
E|----1-------3-------5-------7--------8---|
B|--3---3---5---5---6---6---8---8---10---10|
G|2-------4-------5-------7-------9--------|
D|-----------------------------------------|
A|-----------------------------------------|
E|-----------------------------------------|

E|-------10----------12--------------------|
B|----12----12----13----13----13~~---------|
G|-10----------12----------12--------------|
D|-----------------------------------------|
A|-----------------------------------------|
E|-----------------------------------------|

12

Sweep
Picking
I

Exerccio C:
E|------12----------12----------12---------|
B|---13----13----13----13----13----13----13|
G|12----------12----------12----------12---|
D|-----------------------------------------|
A|-----------------------------------------|
E|-----------------------------------------|

E|-12--------7-------7-------7-------7-----|
B|----13---8---8---8---8---8---8---8---8---|
G|-------7-------7-------7-------7---------|
D|-----------------------------------------|
A|-----------------------------------------|
E|-----------------------------------------|

E|------8---------8---------8---------8----|
B|---10---10---10---10---10---10---10---10-|
G|-9---------9---------9---------9---------|
D|-----------------------------------------|
A|-----------------------------------------|
E|-----------------------------------------|

E|-----5-------5-------5-------5-----------|
B|---6---6---6---6---6---6---6---6---------|
G|-5-------5-------5-------5---------------|
D|-----------------------------------------|
A|-----------------------------------------|
E|-----------------------------------------|

Exerccio D:
E|-----3-3-----------12-12-----------7-7---|
B|---5-----5------13-------13------8-----8-|
G|-5---------5-12-------------12-7---------|
D|-----------------------------------------|
A|-----------------------------------------|
E|-----------------------------------------|

E|---------10-10------------8-8------------|
B|------12-------12------10-----10------13-|
G|-7-12-------------12-9-----------9-14----|
D|-----------------------------------------|
A|-----------------------------------------|
E|-----------------------------------------|

13

Sweep
Picking
I
E|-12-12-----------5-5-----------8-8-------|
B|-------13------6-----6------10-----10----|
G|----------14-5---------5-10-----------10-|
D|-----------------------------------------|
A|-----------------------------------------|
E|-----------------------------------------|

Exerccio E:
E|-----3-12-----------7-10------------8-12-|
B|---5------13------8------12------10------|
G|-5-----------12-7-----------12-9---------|
D|-----------------------------------------|
A|-----------------------------------------|
E|-----------------------------------------|

E|-----------5-8---------------------------|
B|-13------6-----10------------------------|
G|----14-5----------10---------------------|
D|-----------------------------------------|
A|-----------------------------------------|
E|-----------------------------------------|

Exerccio F:
E|-------12------------8----------7--------|
B|----13----13------10---10-----8---8------|
G|-12----------12-9---------9-7-------7-5~-|
D|-----------------------------------------|
A|-----------------------------------------|
E|-----------------------------------------|

Exerccio G:
E|-------12-10------------8-7---------5-3--|
B|----13-------12------10-----8-----6-----5|
G|-12-------------12-9----------9-5--------|
D|-----------------------------------------|
A|-----------------------------------------|
E|-----------------------------------------|

E|-------7-7---------7-7-------------------|
B|-----8-----8-----8-----8-----------------|
G|-5-7---------7-7---------7---------------|
D|-----------------------------------------|
A|-----------------------------------------|
E|-----------------------------------------|

14

Sweep
Picking
I

Exerccio H:
E|-----1-3---------1-3---------5-7---------|
B|---3-----5-----1-----3-----6-----8-----5-|
G|-2---------4-2---------4-5---------7-5---|
D|-----------------------------------------|
A|-----------------------------------------|
E|-----------------------------------------|

E|-5-7---------7-8-----------8-10----------|
B|-----6-----8-----10------8------10-------|
G|-------7-9----------10-9-----------10-12-|
D|-----------------------------------------|
A|-----------------------------------------|
E|-----------------------------------------|

E|----10-12-------------12-10--------------|
B|-12-------13-------13-------12----13~~---|
G|-------------14-12-------------12--------|
D|-----------------------------------------|
A|-----------------------------------------|
E|-----------------------------------------|

Misturando Tcnicas
Por se tratar de uma tcnica bem especfica e necessria para o desenvolvimento do
guitarrista, o Sweep Picking quando articulado com outras tcnicas permite ao guitarrista maior
fluncia e desenvoltura em seu fraseado. difcil observarmos alguma melodia que seja
inteiramente tocada com sweep, pois a tcnica sempre aparece entre vrias outras como os ligados,
o tapping e at mesmo o slide. O bom domnio dessas tcnicas e a mistura entre elas causam um
bom resultado quando aplicadas.
Como exemplo prtico podemos citar uma melodia que comea sendo executada com um
arpejo em sweep pela necessidade de executar as notas de forma mais rpida e depois, para o
restante da melodia, ns usamos outras tcnicas como a palhetada alternada, que tambm uma
tcnica de mo direita, e ligados, slides e bends, que so tcnicas de mo esquerda.
Algumas vezes ns misturamos tcnicas no apenas por uma busca de resultados
melhores, mas tambm por necessidade ou a falta dela, como o caso do exemplo acima. De fato,
importante comearmos a perceber os melhores momentos para utilizar cada uma das tcnicas ou
ento saber alternar entre uma tcnica e outra para que em momento nenhum voc se sinta limitado.
Com o Sweep Picking ns podemos tocar sequncias de arpejos com maior velocidade e
preciso, podemos executar sequncias de notas que possuem quantidade mpar ou indefinida de
notas por corda, e alm disso, estudar uma nova tcnica sempre traz novas possibilidades de
raciocnio e execuo.

15

Sweep
Picking
I

Exerccio I
Palhetada Alternada e Sweep Picking

Exerccio A:
E|-12----------------------12------------------------|
B|----12----------------12----12----------------12---|
G|-------15-14-12-14-15----------15-14-12-14-15------|
D|---------------------------------------------------|
A|---------------------------------------------------|
E|---------------------------------------------------|

Exerccio B:
E|-------------------------------8-5-8---------------|
B|-------------------------5-8-5---------------------|
G|-------------------7-5-7---------------------------|
D|-------------5-7-5---------------------------------|
A|-------7-5-7---------------------------------------|
E|-5-8-5---------------------------------------------|

Exerccio C:
E|-------12-15-13-12-10~--------10-13-12-10-8~-------|
B|----13---------------------12----------------------|
G|-14---------------------12-------------------------|
D|---------------------------------------------------|
A|---------------------------------------------------|
E|---------------------------------------------------|


E|-------8-12-10-8-7~---------7-10-8-7-5~------------|
B|----10--------------------9------------------------|
G|-10---------------------7--------------------------|
D|---------------------------------------------------|
A|---------------------------------------------------|
E|---------------------------------------------------|

Exerccio D:
E|----------------------8-10-12-13-12-10-------------|
B|-----------------8-10------------------13-12-10----|
G|-----------5-7-9--------------------------------12-|
D|-------5-7-----------------------------------------|
A|-3-5-7---------------------------------------------|
E|---------------------------------------------------|

16

Sweep
Picking
I
E|---------------------------------------------------|
B|---------------------------------------------------|
G|-10-9----------------------------------------------|
D|------12-10-9--------------------------------------|
A|--------------12-10-8------------------------------|
E|----------------------12-10-8-7-8------------------|

Exerccio E:
E|---------------------------10----------------------|
B|------------------10-12-13----13-12-10-------------|
G|----------------9----------------------12-10-9-----|
D|---------7-9-10------------------------------------|
A|-------7-------------------------------------------|
E|-5-7-8---------------------------------------------|

E|---------------------------------------------------|
B|---------------------------------------------------|
G|---------------------------------------------------|
D|-12-10-9-7~----------------------------------------|
A|---------------------------------------------------|
E|---------------------------------------------------|

Exerccio F:
E|---------------------------------------16-15-13-15~|
B|------------------------------13-15-16-------------|
G|---------------------------12----------------------|
D|------------10-13-12-10-12-------------------------|
A|---------10----------------------------------------|
E|-8-10-11-------------------------------------------|

Exerccio G:
E|---------------------9-12-9------------------------|
B|------------------10--------10---------------------|
G|----------------9--------------9-------------------|
D|---------7-9-11------------------11----------------|
A|-------7----------------------------12~~-----------|
E|-5-7-9---------------------------------------------|

Exerccio H:
E|-------------------------------------11-13-15-13-11|
B|----------------------------12-13-15---------------|
G|-------------------12-13-15------------------------|
D|----------12-13-15---------------------------------|
A|-15-14-15------------------------------------------|
E|---------------------------------------------------|

17

Sweep
Picking
I
E|---------------------------------------------------|
B|-15-13-12------------------------------------------|
G|----------15-13-12---------------------------------|
D|-------------------15-13-12------------------------|
A|----------------------------14-15~-----------------|
E|---------------------------------------------------|

Exerccio II
Palhetada Alternada, Sweep Picking e Ligados

Exerccio A:
E|-------12-15p12----------12-15p13----------12------|
B|----13----------13----13----------13----13----13~--|
G|-12----------------12----------------12------------|
D|---------------------------------------------------|
A|---------------------------------------------------|
E|---------------------------------------------------|


Exerccio B:
E|-15p12----------12-15p12-12p8---------8-12p8-------|
B|-------13----13---------------10---10--------------|
G|----------12---------------------9-----------------|
D|---------------------------------------------------|
A|---------------------------------------------------|
E|---------------------------------------------------|


E|-8p5-------5-8p5-10p7-------7-10p7-----------------|
B|-----6---6------------8---8------------------------|
G|-------5----------------7--------------------------|
D|---------------------------------------------------|
A|---------------------------------------------------|
E|---------------------------------------------------|

Exerccio C:
E|-5p2-----------2-8p5-----------5-11p8--------------|
B|-----4-------4-------7-------7--------10---------10|
G|-------5-2h5-----------8-5h8-------------11-8h11---|
D|---------------------------------------------------|
A|---------------------------------------------------|
E|---------------------------------------------------|

E|-8-14p11----------------11-17~~--------------------|
B|---------13----------13----------------------------|
G|------------14-11h14-------------------------------|
D|---------------------------------------------------|
A|---------------------------------------------------|
E|---------------------------------------------------|


18

Sweep
Picking
I

Exerccio D:
E|----------12----------------12---------------------|
B|-------12----15p12-------12----15p12---------------|
G|-14b16-------------14b16---------------------------|
D|---------------------------------------------------|
A|---------------------------------------------------|
E|---------------------------------------------------|

Exerccio E:
E|---------------------------------------------------|
B|---------------------------------------------------|
G|----------9h12p11p9h11~---8h11-9~------------------|
D|--------9---------------9--------------------------|
A|-7h9h10--------------------------------------------|
E|---------------------------------------------------|

E|-------------------------------------9h10h12-------|
B|-----------------------------8h10h12---------------|
G|----------------------7h9h11-----------------------|
D|---------------7h9h11------------------------------|
A|--------7h9h10-------------------------------------|
E|-7h9h10--------------------------------------------|

Exerccio F:
E|-12p8---------8-12p8---------8-13p10----------10---|
B|------10---10--------10---10---------10----10------|
G|---------9--------------9---------------10---------|
D|---------------------------------------------------|
A|---------------------------------------------------|
E|---------------------------------------------------|




E|-13p10----------10-10p7-------7-10p7-------7-12p8--|
B|-------10----10---------8---8--------8---8---------|
G|----------10--------------7------------7-----------|
D|---------------------------------------------------|
A|---------------------------------------------------|
E|---------------------------------------------------|




E|-------8-12p8-------8-8p5-------5-8p5-------5-10p6-|
B|-8---8--------8---8-------6---6-------6---6--------|
G|---9------------9-----------5-----------5----------|
D|---------------------------------------------------|
A|---------------------------------------------------|
E|---------------------------------------------------|



20
19

Sweep
Picking
I
E|-------6-10p6-------6-7p4-------4-10p7--------7----|
B|-6---6--------6---6-------6---6--------9----9------|
G|---7------------7-----------7------------10--------|
D|---------------------------------------------------|
A|---------------------------------------------------|
E|---------------------------------------------------|




E|-13p10----------10-16p13----------16---------------|
B|-------12----12----------15----15------------------|
G|----------13----------------16---------------------|
D|---------------------------------------------------|
A|---------------------------------------------------|
E|---------------------------------------------------|

Exerccio G:
E|-12p8---------8-12p8---------8-10p7--------7-13p10-|
B|------10---10--------10---10--------9----9---------|
G|---------9--------------9-------------10-----------|
D|---------------------------------------------------|
A|---------------------------------------------------|
E|---------------------------------------------------|




E|----------10-17p13----------13-17p13----------13---|
B|-12----12----------13----13----------13----13------|
G|----13----------------14----------------14---------|
D|---------------------------------------------------|
A|---------------------------------------------------|
E|---------------------------------------------------|



E|-14p11----------11-17p14----------14-17p12---------|
B|-------13----13----------16----16----------12----12|
G|----------14----------------17----------------14---|
D|---------------------------------------------------|
A|---------------------------------------------------|
E|---------------------------------------------------|




E|-12-17p12----------12-16p12----------12-16p12------|
B|----------12----12----------12----12----------12---|
G|-------------14----------------13----------------13|
D|---------------------------------------------------|
A|---------------------------------------------------|
E|---------------------------------------------------|




E|----12---------------------------------------------|
B|-12------------------------------------------------|
G|---------------------------------------------------|
D|---------------------------------------------------|
A|---------------------------------------------------|
E|---------------------------------------------------|

20

Sweep
Picking
I

Glossrio

Sweep Picking: Tcnica utilizada por guitarristas e violonistas que utilizam palheta. A
tcnica consiste em aproveitar o movimento anterior da palhetada, seja pra cima ou pra baixo, e
tocar o primeiro toque da prxima corda (caso no seja o nico) com a mesma direo de palhetada.

Palhetada Alternada: Tcnica que consiste em tocar sempre alternando os movimentos da


palhetada.

Ligados: Tcnica que consiste em produzir mais sons com o esforo dessa mo dando
apenas um ataque na corda. Tcnicamente podemos efetuar o ligado atravs do Hammer-On , do
Pull-Off ou do Tapping.

Frase: Grupos de notas tocadas uma aps a outra e seguidas de pequena pausa; Pequena
melodia criada como parte de uma melodia maior. Aprender a construir frases essencial para para
se criar solos que soem bem estruturados e com sentido musical coerente.

Arpejo: Consiste em tocar as notas de um acorde de forma separada; sucessivamente.


Arpejos no precisam seguir uma ordem exata de execuo das notas do acorde, podem ser
iniciados e terminados em qualquer uma nota que forma o acorde.

Metrnomo:

Aparelho utilizado por msicos para estudo. O Metrnomo marca o


andamento da msica ou de uma sequncia atravs de pulsos regulares e uniformes.

Andamento: Andamento a velocidade prpria da pulsao. O andamento determinado


pela quantidade de pulsos dentro de um espao de tempo padronizado, o minuto. Para determinar o
andamento utilizamos a sigla BPM (Batimentos por Minuto).

Nota Mais Grave: a nota de menor frequncia em um acorde. Geralmente ela est na
corda mais grave que tocamos na sequncia.

Nota Fundamental:

a primeira nota de um acorde, aquela que lhe d o nome e a


referncia pra a classificao das demais notas do acorde. A fundamental muitas das vezes no est
indicada como a nota mais grave de um acorde, como o caso dos acordes com inverso.

Tapping: Especificamente uma tcnica executada pela mo direita, que consiste em us-la
para apertar uma nota no brao do instrumento atravs de um tapa, tap, reproduzindo o mesmo
efeito do hammer-on.

Shape: Do ingls: Molde, Frma. Pode ser entendido como fragmento de uma escala ou
algum acorde que padronizado por conter caractersticas especficas; alguma sequncia em suas
notas ou em sua formao.

21

Sweep
Picking
I

Sincronismo: Consiste em definir e executar aes distintas simuiltaneamente. Na guitarra


o sincronismo se d por diversos fatores, mecanicamente, atravs dos movimentos das duas mo.

Bends: Tcnica executada pela mo esquerda que consiste em levantar (ou abaixar) a corda
para que seja aumentada a altura da nota em uma determinada casa.

Melodia: a execuo coerente dos sons e do silncio de forma sucessiva, gerando uma
sequncia com identidade prpria.

Slide: Tcnica

que consiste em arrastar o dedo de uma determinada casa para outra. O slide
pode ser executado com qualquer dedo de ambas as mos.

Tom: Tom ou tonalidade a nota ou acorde que funciona como referncia em uma msica.
De forma mais aprofundada, Tom o conjunto de acordes e notas ligadas hierarquicamente a uma
nota tnica nas escalas Maior Natural ou Menor harmnica. A tnica possui a funo de resolver ou
concluir a msica, ela a primeira nota da escala e o acorde que a usa como fundamental adquire
estabilidade e pode concluir a msica com sensao de repouso.

Transposio

de Tonalidade: um processo que objetiva modificar altura de uma


sequncia de acordes ou notas, ocasionando em uma nova tonalidade.

Campo Harmnico: Conjunto dos acordes formados a partir de uma mesma escala. O
Campo Harmnico de uma escala nos ajuda a compreender as possibilidades de combinao dos
acordes em uma tonalidade, bem como, permite escolher os acordes em funo de sua relao com
as notas da escala e sua funo neste contexto.
Digitaes: So formas com padres das posies em que devemos colocar os dedos da
mo esquerda para tocar as notas especficas de determinada escala, arpejo ou acorde. No violo ou
guitarra, as digitaes se mantm iguais para todas as tonalidades, bastando posicionar corretamente
a nota Tnica da escala para se tocar no tom correto.
Tnica: a primeira nota de uma escala, aquela que define a tonalidade e a referncia para
a classificao das outras notas da escala. Tambm o nome da funo harmnica exercida pelo
acorde de primeiro grau em uma tonalidade qualquer.
Aulas relacionadas
Palhetada Alternada I
http://www.cifraclub.com.br/tv/videoaulas/teoricas/883/
Palhetada Alternada II
http://www.cifraclub.com.br/tv/videoaulas/teoricas/976/

22

Sweep
Picking
I

Palhetada Alternada III


http://www.cifraclub.com.br/tv/videoaulas/teoricas/1025/
Intervalos Teoria Musical
http://www.cifraclub.com.br/tv/videoaulas/teoricas/641/
Formao de acordes I Trades
http://www.cifraclub.com.br/tv/videoaulas/teoricas/680/
Formao de acordes II Ttrades
http://www.cifraclub.com.br/tv/videoaulas/teoricas/681/
Pentatnica Menor e Pentablues
http://www.cifraclub.com.br/tv/videoaulas/teoricas/799/
Escala Maior Natural
http://www.cifraclub.com.br/tv/videoaulas/teoricas/977/
Crditos
Elaborao Vincius Dias
Diagramao Philippe Lobo
Reviso Adriano Ferreira e Philippe Lobo
Imagens Site oficial Planet Waves e Gabriel Bueno
Textos Vincius Dias
Fotos Lylibete Cabral
Realizao Cifra Club TV / Studio Sol comunicao digital

Bom Som!

23