You are on page 1of 3

Song isnt that hard to play, just pluck as written :D

Standard tuning
Enjoy,
Dave L
Intro:
e|----------------------------------------------------------------------|
B|-0---0---0---0---0---0---0---0---0---0---0---0----0---5---7---5---0---|
G|-7---7---7---6---4---4---4---4---4---4---4---6----7---7---7---7---7---|
D|---0---0---0---0---0---0---0---0---0---0---0---0----0---0---0---0---0-|
A|----------------------------------------------------------------------|
E|-7---------5-----3---------3-----3---------5------7-------------------|
e|-------------------------------------------------------------|--------|
B|-0---0----0---0---0---0---0---0---0---0---0---0---0---0---0--|-0------|
G|-7---7----6---4---4---4---4---4---4---0---2---0---0---0---0--|-7------|
D|---0----0---0---0---0---0---0---0---0---0---0---0---0---0---0|--------|etc
A|-------------------------------------------------------------|--------|
E|-7------5-----3---------3-----3---------3--/--7---------5----|-7------|
Verse 1:
e|---------------------------------------------------------------------|
B|-0---0---0---0---0---0---0---0---0---0---0---0---0---5---7---5---0---|
G|-7---7---7---6---4---4---4---4---4---4---4---6---7---7---7---7---7---|
D|---0---0---0---0---0---0---0---0---0---0---0---0---0---0---0---0---0-|
A|---------------------------------------------------------------------|
E|-7---------5-----3---------3-----3---------5-----7---------7-----7---|
e|-----------------0---------------------------------------------------|
B|-0---0---0---0---0---0---0---0---0---0---0---0---5---0---0---0---0---|
G|-7---7---6---4-------4---4---4---4---4---6---7---7---7---7---7---7---|
D|---0---0---0---0---0---0---0---0---0---0---0---0---0---0---0---0---0-|
A|---------------------------------------------------------------------|
E|-------5-----3---------3-----3---------5-----7---------7---7-----7---|
e|-------------0---------------0---------------------------------------|
B|-0---0---0---0---0---0---0---0---0---0---0---5---7---5---0---0---0---|
G|-7---6---4-------4---4---4-------4---6---7---7---7---7---7---7---7---|
D|---0---0---0---0---0---0---0---0---0---0---0---0---0---0---0---0---0-|
A|---------------------------------------------------------------------|
E|---5-----3---------3-----3---------5-----7-------------------7-----5-|
e|---------0-----------------------------------------------0---0-------|
B|-0---0---0---0---0---0---0---0---0---0---0---0---0---0---0---3---0---|
G|-6---4-------4---4---4---4---0---2---0---0---0---0---0-----------0---|
D|---0---0---0---0---0---0---0---0---0---0---0---0---0---0---0---0---0-|
A|---------------------------------------------------------------------|
E|-----3---------3-----3---------3--/--7---------7---5\0---------------|
e|-------------------------------------------------|------------------|
B|-0---0---0---0---0---0---0---0---0---0---0---0---|-0---0------------|
G|-2---0---0---0---0---0---0---0---0---0---0---0---|-7---7------------|
D|---0---0---0---0---0---0---0---0---0---0---0---0-|---0--------------|
A|-------------------------------------------0!----|------------------|

E|-----------2-----3-------------------------------|-7----------------| Verse 2: e|---------------------------------------------------------------------| B|-0---0---0---0---0---0---0---0---0---0---0---0---0---5---7---5---0---| G|-7---7---7---6---4---4---4---4---4---4---4---6---7---7---7---7---7---| D|---0---0---0---0---0---0---0---0---0---0---0---0---0---0---0---0---0-| A|---------------------------------------------------------------------| E|-7---------5-----3---------3-----3---------5-----7-------------------| e|-----------------0---------------------------------------------------| B|-0---0---0---0---0---0---0---0---0---0---0---0---5---0---0---0---0---| G|-7---7---6---4-------4---4---4---4---4---6---7---7---7---7---7---7---| D|---0---0---0---0---0---0---0---0---0---0---0---0---0---0---0---0---0-| A|---------------------------------------------------------------------| E|-7-----5-----3---------3-----3---------5-----7---------7---7---7-7---| e|---------------------------------------------------------------------| B|-0---0---0---0---0---0---0---0---0---0---0---5---7---5---0---0---0---| G|-7---6---4---4---4---4---4---4---4---6---7---7---7---7---7---7---7---| D|---0---0---0---0---0---0---0---0---0---0---0---0---0---0---0---0---0-| A|---------------------------------------------------------------------| E|---5-----3---------3-----3---------5-----7-------------------7-----5-| e|---------------------------------------------------------0---0-------| B|-0---0---0---0---0---0---0---0---0---0-0-0---0---0---0---0---3---0---| G|-6---4---4---4---4---4---4---0---2---0-0-0---0---0---0-----------0---| D|---0---0---0---0---0---0---0---0---0---0---0---0---0---0---0---0---0-| A|---------------------------------------------------------------------| E|-----3---------3-----3---------3--/--7---------7---5\0---------------| e|------------------------------------------------------0-------------| B|-0---0---0---0---0---0---0---0---0---0---0---0----0-----0-----0-----| G|-2---0---0---0---0---0---0---0---0---0---0---0------7-----7-------7-| D|---0---0---0---0---0---0---0---0---0---0---5-/--9-----------9---7---| A|--------------------------------------------------------------------| E|-----------2-----3--------------------------------------------------| e|-0---0---0---0---0---0---0---0---0---0---0---0---0---0---0---0---0---| B|-0---0---0---0---0---0---0---0---0---0---0---0---0---0---0---0---0---| G|---7---7---7---7---7---7---7---7---7---7---7---7---7---7---7---7---7-| D|-------7-----9---------9-----7---------7-----9---------9-----7-------| A|---------------------------------------------------------------------| E|---------------------------------------------------------------------| e|-0---0---0---0---0---0---0---0---0---0---0---0---0---0---0---0---0---| B|-0---0---0---0---0---0---0---0---0---0---0---0---0---0---0---0---0---| G|---7---7---7---7---7---7---7---7---7---7---7---7---7---7---7---7---7-| D|---7-------------------------------------9---------9-----7---------7-| A|---------9---------9-----7---------7---------------------------------| E|---------------------------------------------------------------------| e|-0---0---0---0---0---0---0---0---0---0---0---0---0---0---0---0---0---| B|-0---0---0---0---0---0---0---0---0---0---0---0---0---0---0---0---0---| G|---7---7---7---7---7---7---7---7---7---7---7---7---7---7---7---7---7-| D|-------------------------------------9---------9-----7---------7-----| .

A|-----9---------9-----7---------7-------------------------------------| E|---------------------------------------------------------------------| e|-0---0---0---0---0---0---0---0---0---0---0---0---0---0---0---0---0---| B|-0---0---0---0---0---0---0---0---0---0---0---0---0---0---0---0---0---| G|---7---7---7---7---7---7---7---7---7---7---7---7---7---7---7---7---7-| D|---------------------------------9---------9-----7---------7-----9---| A|-9---------9-----7---------7-----------------------------------------| E|---------------------------------------------------------------------| e|-0---0---0---0---0---0---0---|--------------------------------------| B|-0---0---0---0---0---0---0---|0-------------------------------------| G|---7---7---7---7---7---7-----|7-------------------------------------| D|-------9-----9---------9-7---|--0-----------------------------------| A|---------------------------0-|--------------------------------------| E|-----------------------------|7-------------------------------------| Verse 3: e|---------------------0---------------0-------------------------------| B|-0---0---0---0---0---0---0---0---0---0---0---0---0---5---7---5---0---| G|-7---7---7---6---4-------4---4---4-------4---6---7---7---7---7---7---| D|---0---0---0---0---0---0---0---0---0---0---0---0---0---0---0---0---0-| A|---------------------------------------------------------------------| E|-7---------5-----3---------3-----3---------5-----7-------------------| e|-----------------0---------------0-----------------------------------| B|-0---0---0---0---0---0---0---0---0---0---0---0---5---0---0---0---0---| G|-7---7---6---4-------4---4---4-------4---6---7---7---7---7---7---7---| D|---0---0---0---0---0---0---0---0---0---0---0---0---0---0---0---0---0-| A|---------------------------------------------------------------------| E|-7-----5-----3---------3---3-3---------5-----7---------7---7---7-7---| e|-------------0---------------0---------------------------------------| B|-0---0---0---0---0---0---0---0---0---0---0---5---7---5---0---0---0---| G|-7---6---4-------4---4---4-------4---6---7---7---7---7---7---7---7---| D|---0---0---0---0---0---0---0---0---0---0---0---0---0---0---0---0---0-| A|---------------------------------------------------------------------| E|---5-----3---------3---3-3---------5-----7---------7---------7-----5-| e|---------0-----------------------------------------------0---0-------| B|-0---0---0---0---0---0---0---0---0---0---0---0---0---0---0---3---0---| G|-6---4-------4---4---4---4---0---2---0---0---0---0---0-----------0---| D|---0---0---0---0---0---0---0---0---0---0---0---0---0---0---0---0---0-| A|---------------------------------------------------------------------| E|-----3---------3-----3---------3--/--7---------7---5\0---------------| e|-------------------| B|-0---0---0---0---0-| G|-2---0---0---0---0-| D|---0---0---0---0---| A|-------------------| E|-----------2-----3-| .