You are on page 1of 5

=================

|Paramore - Decode|
===================
Drop D
~Lead Guitar~
-Intro (You can also play this without using the D string
|-------------------------9----------|
|-11------11------11-----------------|
|-----10------10------10------10-----|
|---11--11--11--11--11--11--11---11--| (x2)
|------------------------------------|
|------------------------------------|
|-------------------------13---|
|-11------11------11-----------|
|-----13------13------13-------|
|---11--11--11--11--11--11--11-|
|------------------------------|
|------------------------------|
|---------------------11--|
|-11------11------11------|
|-----13------13----13----|
|---11--11--11--11--------|
|-------------------------|
|-------------------------|
- Verse 1: Play 3 times
|---------------9----|
|-11---11---11-------|
|---10---10---10--10-|
|--------------------| (x2)
|--------------------|
|--------------------|
|---------------13---|
|-11---11---11-------|
|---13---13---13--13-|
|--------------------|
|--------------------|
|--------------------|
|--------------11--|
|-11---11---11-----|
|---13---13--13----|
|------------------|
|------------------|
|------------------|
|------------------|
But on the third time the last part is like:
|---------------13--11~-|
|-11---11---11----------|
|---13---13---13--13----|
|-----------------------|
|-----------------------|
|-----------------------|
-Chorus: This might look like the verse cause it's just a variation of it, listen
to the song to get it right
Play this twice
|---------------9~9---|
|-11---11---11--------|
|---10---10---10---10-|
|---------------------| (x2)
|---------------------|

-Verse 2: Play this 3 times |---------------9----| |-11---11---11-------| |---10---10---10--10-| |--------------------| (x2) |--------------------| |--------------------| |---------------13---| |-11---11---11-------| |---13---13---13--13-| |--------------------| |--------------------| |--------------------| |--------------11--| |-11---11---11-----| |---13---13--13----| |------------------| |------------------| |------------------| |------------------| But on the third time the last part is like: |---------------13--11~-| |-11---11---11----------| |---13---13---13--13----| |-----------------------| |-----------------------| |-----------------------| -Repeat Chorus-Solo: |-----------------------------13----| |-13^14rb13-11~-13^14rb13-11~----11-| |-----------------------------------| |-----------------------------------| |-----------------------------------| (X2) |-----------------------------------| .|---------------------| |---------------13-13--11~-| |-11---11---11-------------| |---13---13---13-----13----| |--------------------------| |--------------------------| |--------------------------| -Pre Verse: You can play these with or without using the D string. it's easier to play it without the D string |-----------------------------------| |-11------11------11------11--------| |-----10------10------10------10----| |---11--11--11--11--11--11--11--11--| |-----------------------------------| |-----------------------------------| |------------------------------| |-9-------9------9-------------| |----8--------8-------8--------| |--10--10--10--10--10--10--1-3-| |--------------------------1-3-| |--------------------------1-3-| PM .

|-----------------------------------| |--------------------------| |-13^14rb13-11-11-9--------| |-------------------5-6-8~-| |--------------------------| |--------------------------| |--------------------------| |--------------------------| |-----------------------------13----| |-13^14rb13-11~-13^14rb13-11~----11-| |-----------------------------------| |-----------------------------------| |-----------------------------------| (X2) |-----------------------------------| |-----------------------------------| |--------16/18--------| |-13-14~-------14-13~-| |---------------------| |---------------------| |---------------------| |---------------------| |---------------------| -Bridge: (not 100% sure about this) |--9--8---13--11--| |--10-11--11--11--| |--11-10--13--13~-| (X2) |------------~----| |------------~----| |------------~----| -Repeat Chorus 3 times-Outro: Play this four times |---------13---| |-14-13-11--11-| |--------------| |--------------| |--------------| |--------------| |--------------| |----------| |-14-16----| |-------13-| |----------| |----------| |----------| |----------| Then |----------------| |-14-14-14~--p13-| |----------------| |----------------| |----------------| |----------------| |----------------| _________________________________________________ ~Rhythm Guitar~ -Verse: .

Play Each Chord 16 Times |---------| |---------| |---------| |---------| (X2) |---------| |-4-1-8-3-| |-4-1-8-3-| PM. Pre-Chorus and Chorus-Solo: |-------------| |-------------| |-------------| (X2) |--4--1--8--3-| |--4--1--8--3-| |--4--1--8--3-| -Bridge: |--------------| |--7--4--11-6~-| |--6--3--10-5~-| (X2) |--4--1--8--3~-| |--4--1--8--3~-| |--4--1--8--3~-| -Repeat Chorus 3 TimesOutro: Play This Four Times |---------------| |---------------| |---------------| . -Pre Chorus: |--------------| |--7--4--11-6~-| |--6--3--10-5~-| |--4--1--8--3~-| |--4--1--8--3~-| |--4--1--8--3~-| -Chorus Play each chord like 16 times again or 8 i don't know |-------------| |-------------| |-------------| (X2) |--4--1--8--3-| |--4--1--8--3-| |--4--1--8--3-| -Pre Verse: |--1-------4-------| |--1-------4----9~-| |--3-------6----8--| |--3-------6----6~-| |--1-------4----6--| |---------------6~-| |-----| |-----| |-----| |---3-| |-3-3-| |-3-3-| PM. . . . -Repeat Verse.

|--4--6--1--8-3-| |--4--6--1--8-3-| |--4--6--1--8-3-| |--------------| |--------------| |--------------| |--4--8--3---6-|(Don't play the G# chord on the last time) |--4--8--3---6-| |--4--8--3---6-| Then |-----------| |-----------| |-----------| |--1--1--1~-| |--1--1--1~-| |--1--1--1~-| .