You are on page 1of 2

Mxtabs [http://www.mxtabs.

net]
~~~~~~------########## NO DOUBT ##########-------~~~~~~
**** Dont Speak ****
The solo for Dont Speak played
sure this is right, and some of
thought that was gay so I tried
by ND. Im pretty sure its 100%

on their Album A Tragic Kingdom. I am pretty


the solos I saw before were wrong, and I
to change one of them to the correct version
correct.

Ifs theres any mistakes email me at Hurleysk8erneb@aol.com


Intro-Played Clean
E|:----------------B|:-4---4---4---4--G|:-5---5---5---5--D|:---5---5---5---5A|:----------------E|:----------------3x

|-----------------|-----------------|-----------------|
|-3---3---1---1---|-3---3---3---3---|-1---1---3---3---|
|-3---3---1---1---|-3---3---3---3---|-1---1---3---3---|
|---5---5---3---3-|---3---3---5---5-|---3---3---3---3-|
|-----------------|-----------------|-----------------|
|-----------------|-----------------|-----------------|
we used to be together. . .
Always...

E|-----------------|-----------------|-----------------|-----------------|
B|-4---4---3---3---|-1---1---3---3---|-3---3---4---4---|-1---1---3---3---|
G|-5---5---3---3---|-1---1---3---3---|-3---3---5---5---|-1---1---3---3---|
D|---5---5---5---5-|---3---3---3---3-|---5---5---5---5-|---3---3---3---3-|
A|-----------------|-----------------|-----------------|-----------------|
E|-----------------|-----------------|-----------------|-----------------|
I really feel
That im losing my...
the end...
E|-----------------|-----------------|-----------------|-6---------------|
B|-4---4---3---3---|-1---1---3---3---|-8---8---6---6---|-8---------------|
G|-5---5---3---3---|-1---1---3---3---|-8---8---7---7---|-8---------------|
D|---5---5---5---5-|---3---3---3---3-|--10--10---8---8-|-8---------------|
A|-----------------|-----------------|-----------------|-6---------------|
E|-----------------|-----------------|-----------------|-----------------|
It looks as though, your letting go and ifs its real...

Chorus-2X - "Don't speak, I know just what you're saying'..."


E|--8--x-8--x-8----6-x-6-x-6---6-x-6-x-6---8--x-8--x-8----6-x-6-x-6--|
B|--9--x-9--x-9----6-x-6-x-6---8-x-8-x-8---8--x-8--x-8----6-x-6-x-6--|
G|--10-x-10-x-10---6-x-6-x-6---8-x-8-x-8---9--x-9--x-9----6-x-6-x-6--|
D|--10-x-10-x-10---8-x-8-x-8---8-x-8-x-8---10-x-10-x-10---8-x-8-x-8--|
A|--8--x-8--x-8----8-x-8-x-8---6-x-6-x-6---10-x-10-x-10---8-x-8-x-8--|
E|-----------------6-x-6-x-6---------------8--x-8--x-8----6-x-6-x-6--|
E|--6-x-6-x-6---8------------------|
B|--8-x-8-x-8---9---------9----8---|
G|--8-x-8-x-8---10--------10---9---|
D|--8-x-8-x-8---10--------11---10--|
A|--6-x-6-x-6---8---------11---10--|
E|---------------------------9----8---|
Second verse
Played with chords

E|--3-3---3-3---1-1---6-6---6-6---6-6---3--|
B|--4-4---3-3---1-1---6-6---8-8---6-6---5--|
G|--5-5---3-3---1-1---7-7---8-8---7-7---5--|
D|--5-5---5-5---3-3---8-8---8-8---8-8---5--|
A|--3-3---5-5---3-3---8-8---6-6---8-8---3--|
E|--------3-3---1-1---6-6---------6-6------|

Bridge-Small amount of Distortion


E|--4-4----4-4----2-2---2-2---5---4---6----------------4--|
B|--6-6----4-4----4-4---2-2---5---6---8----------------4--|
G|--6-6----5-5----4-4---3-3---6---6---8-----6/8--8--8--5--|
D|--6-6----6-6----4-4---4-4---7---6---8-----6/8--8--8--6--|
A|--4-4----6-6----2-2---4-4---7---4---6-----4/6--6--6--6--|
E|---------4-4----------2-2---5------------------------4--|

Solo-I tried to make it easy, and I think its 100% correct.


Played with a Pick and clean sound.
h=hammer-on
~ = Vibrato

p=pull-off
/=slide

^ = bend
\=Slide Down

E|----- --1-3-1~---------------------3-13~---------1-3-1~---------------|
B|----1-4--------3------------1-1/4-------------1-4--------3-------------|
G|-----------------3~---0-1~~--------------------------------3~---0-1----|
D|-----------------------------------------------------------------------|
A|-----------------------------------------------------------------------|
E|-----------------------------------------------------------------------|
E|--------------------------8--10-11-10h11-8-10---8--------------------------|
B|--8-9-8h9-11~--9p8-------8--------------------11---8-11-----8------8-9-119-|
G|------------------10~---8-------------------------------10---8h10----------|
D|---------------------------------------------------------------------------|
A|---------------------------------------------------------------------------|
E|---------------------------------------------------------------------------|
E|-----------------------------------------------------------------------|
B|--9h11p9-8~~~----------------------------------------------------------|
G|---------------------------------------3-5-3---------------------------|
D|------------------------3-5----3-5-6----------6-5h6p5~~~~--------------|
A|-----------------3-5/6-----6------------------------------------------|
E|-----------------------------------------------------------------------|