You are on page 1of 2

左手練習

Guitarmen <http://guitarmen.mp3.com.hk>

1. 為了增強左手手指的強度和擴展性,我們有必要經常為左手手指做一些練習,同時亦可摸熟不同把
位的位置。這些練習都是很枯橾無味的,但想要進步又豈有捷徑呢?

2. 第一個是比較簡單的練習,就是從最低音的 E 弦線開始,由得一格彈到第十二格,一直彈到最高的
e 弦線第十二格,然後返過來彈,由第十二格到第一格,由 e 弦到 E 弦。重點是用左手的1,2,
3和4手指彈四個音,然後移動下一個把位再彈,每一個音都要彈得清清楚楚,並且按著拍子
彈的。開始的時候,可以慢慢的來,用口打著拍子1、2、3、4、1、2、3、4...

e||-------------------------------------------------------------------
B||-------------------------------------------------------------------
G||-------------------------------------------------------------------
D||-------------------------------------------------------1-2-3-4-5-6-
A||----------------------------1-2-3-4-5-6-7-8-9-10-11-12-------------
E||-1-2-3-4-5-6-7-8-9-10-11-12----------------------------------------
e||-------------------------------------------------------------------
B||-------------------------------------------1-2-3-4-5-6-7-8-9-10-11-
G||----------------1-2-3-4-5-6-7-8-9-10-11-12-------------------------
D||-7-8-9-10-11-12----------------------------------------------------
A||-------------------------------------------------------------------
E||-------------------------------------------------------------------
e||----1-2-3-4-5-6-7-8-9-10-11-12-
B||-12----------------------------
G||-------------------------------
D||-------------------------------
A||-------------------------------
E||-------------------------------

3. 第二個練習就比較艱苦,在 E 弦的第一格開始用左手的1,2,3和4手指彈第一、二、三和四格,
然後轉換到下一條弦,直至去到 e 弦,就返回 E 弦的第五格開始繼續彈,如此類推,一直彈到 e 弦
的第十二格。特別注意是,左手手指不用動的話,就要放在弦上不要離開 ,這是對初學者超級
難的,但卻可以訓練對手指的操控和其靈活性,同時養成一個減低不必要移動的習慣。然後又返過
來彈由第十二格彈到第九格,由 e 弦彈上到 E 弦。

此作品版權為其作者所有,只可以用作非商業用途 11/2/2008
左手練習
Guitarmen <http://guitarmen.mp3.com.hk>

e||-----------------------------------------1-2-3-4-------------------
B||---------------------------------1-2-3-4---------------------------
G||-------------------------1-2-3-4-----------------------------------
D||-----------------1-2-3-4-------------------------------------------
A||---------1-2-3-4-----------------------------------------5-6-7-8---
E||-1-2-3-4-----------------------------------------5-6-7-8-----------
e||-------------------------5-6-7-8-----------------------------------
B||-----------------5-6-7-8-------------------------------------------
G||---------5-6-7-8---------------------------------------------------
D||-5-6-7-8-----------------------------------------------9-10-11-12--
A||--------------------------------------------9-10-11-12-------------
E||---------------------------------9-10-11-12------------------------
e||-----------------------9-10-11-12-
B||------------9-10-11-12------------
G||-9-10-11-12-----------------------
D||----------------------------------
A||----------------------------------
E||----------------------------------

4. 其他的練習例如:1,2,4,3和 1,4,3,2。雖然看來只是換了左手手指按弦的次序,但當
你試一試就知道你的左手手指靈活性能有很大進步的空間。

此作品版權為其作者所有,只可以用作非商業用途 11/2/2008

Related Interests