You are on page 1of 4

Troublemaker guitar tab

INTRO x1
e|-----------------|-----------------|-----------------|-----------------|
B|-----------------|-----------------|-----------------|-----------------|
G|-----------------|-----------------|-----------------|-----------------|
D|-x-x-x-x-x-x-x-x-|-x-x-x-x-x-x-x-x-|-x-x-x-x-x-x-x-x-|-x-x-x-x-x-7-7-8-|
A|-x-x-x-x-x-x-x-x-|-x-x-x-x-x-x-x-x-|-x-x-x-x-x-x-x-x-|-x-x-x-x-x-7-7-8-|
E|-x-x-x-x-x-x-x-x-|-x-x-x-x-x-x-x-x-|-x-x-x-x-x-x-x-x-|-x-x-x-x-x-5-5-6-|
e|-----------------|-----------------|-----------------|-----------------|
B|-----------------|-----------------|-----------------|-----------------|
G|-------8-9-9-x---|-------7-x-------|-------8-9-9-x---|-------7-x-------|
D|-9-9-x-8-9-9-x-6-|-7-7-x-7-x-7-7-8-|-9-9-x-8-9-9-x-6-|-7-7-x-7-x-7-7-8-|
A|-9-9-x-6-7-7-x-6-|-7-7-x-5-x-7-7-8-|-9-9-x-6-7-7-x-6-|-7-7-x-5-x-7-7-8-|
E|-7-7-x---------4-|-5-5-x-----5-5-6-|-7-7-x---------4-|-5-5-x-----5-5-6-|
VERSE x4
"Hey!... you're giving me a heart attack..."
e|-----------------|-----------------|-----------------|-----------------|
B|-----------------|-----------------|-----------------|-----------------|
G|-------8-9-9-x---|-------7-x-------|-------8-9-9-x---|-------7-x-------|
D|-9-9-x-8-9-9-x-6-|-7-7-x-7-x-7-7-8-|-9-9-x-8-9-9-x-6-|-7-7-x-7-x-7-7-8-|
A|-9-9-x-6-7-7-x-6-|-7-7-x-5-x-7-7-8-|-9-9-x-6-7-7-x-6-|-7-7-x-5-x-7-7-8-|
E|-7-7-x---------4-|-5-5-x-----5-5-6-|-7-7-x---------4-|-5-5-x-----5-5-6-|
CHORUS x1
"Wanna be a troublemaker..."
e|-----------------|-----------------|-----------------|-----------------|
B|-----------------|-----------------|-----------------|-----------------|
G|-----------4-4-0-|-----------4-4-0-|-----------4-4-0-|-----------------|
D|-4---------4-4-0-|-4---------4-4-0-|-4---------4-4-0-|-4---------7-7-8-|
A|-4---------2-2-0-|-4---------2-2-0-|-4---------2-2-0-|-4---------7-7-8-|
E|-2---------------|-2---------------|-2---------------|-2---------5-5-6-|

VERSE x4
"Hey!... I like your BMW..."
e|-----------------|-----------------|-----------------|-----------------|
B|-----------------|-----------------|-----------------|-----------------|
G|-------8-9-9-x---|-------7-x-------|-------8-9-9-x---|-------7-x-------|
D|-9-9-x-8-9-9-x-6-|-7-7-x-7-x-7-7-8-|-9-9-x-8-9-9-x-6-|-7-7-x-7-x-7-7-8-|
A|-9-9-x-6-7-7-x-6-|-7-7-x-5-x-7-7-8-|-9-9-x-6-7-7-x-6-|-7-7-x-5-x-7-7-8-|
E|-7-7-x---------4-|-5-5-x-----5-5-6-|-7-7-x---------4-|-5-5-x-----5-5-6-|
CHORUS x1
"Wanna be a troublemaker..."
e|-----------------|-----------------|-----------------|-----------------|
B|-----------------|-----------------|-----------------|-----------------|
G|-----------4-4-0-|-----------4-4-0-|-----------4-4-0-|-----------------|
D|-4---------4-4-0-|-4---------4-4-0-|-4---------4-4-0-|-4---------7-7-8-|
A|-4---------2-2-0-|-4---------2-2-0-|-4---------2-2-0-|-4---------7-7-8-|
E|-2---------------|-2---------------|-2---------------|-2---------5-5-6-|

SOLO x1
e|-----------------|-----------------|-----------------|-----------------|
B|-----------------|-----------------|--------------9--|--10-------------|
G|-4/8-------------|-------------9---|--11-------------|-----------------|
D|-----------------|-----------------|-----------------|-----------------|
A|-----------------|-----------------|-----------------|-----------------|
E|-----------------|-----------------|-----------------|-----------------|
e|-----------------|-----------------|----------------14--------|-----------------|
B|-10b-------------|-----------------|-------------14----14-17b-|--17-17br-17b----|
G|----------8------|-----------------|-14----14-16--------------|-----------------|
D|-----------------|-----------------|----16--------------------|-----------------|
A|-----------------|-----------------|--------------------------|-----------------|
E|-----------------|-----------------|--------------------------|-----------------|
e|---------------------------|----14----------|---------------------------------------|
B|-17b-17-14-----------------|-14----14-------|-17-14----14--17-14----14--17-14----14-|
G|-----------16-14----14-16b-|----------16-14-|-------17-----------17-----------17----|
D|-----------------16--------|----------------|---------------------------------------|
A|---------------------------|----------------|---------------------------------------|
E|---------------------------|----------------|---------------------------------------|
e|---------------------------------|
B|-17-14----14--17-14----14--------|
G|-------17-----------17----17--11-|
D|------------------------------11-|
A|---------------------------------|
E|---------------------------------|
BRIDGE x1
"Easy come and go, gonna go it alone..."
e|-----------------|-----------------|-----------------|-----------------|
B|-----------------|-----------------|-----------------|-----------------|
G|-----------------|-----------------|-----------------|-----------------|
D|-9-x-x-x-x-x-x-x-|-x-x-x-x-x-7-7-8-|-9-x-x-x-x-x-x-x-|-x-x-x-x-x-7-7-8-|
A|-9-x-x-x-x-x-x-x-|-x-x-x-x-x-7-7-8-|-9-x-x-x-x-x-x-x-|-x-x-x-x-x-7-7-8-|
E|-7-x-x-x-x-x-x-x-|-x-x-x-x-x-5-5-6-|-7-x-x-x-x-x-x-x-|-x-x-x-x-x-5-5-6-|

e|-----------------|-----------------|-----------------|-----------------|
B|-----------------|-----------------|-----------------|-----------------|
G|-----------------|-----------------|-----------------|-----------------|
D|-9-x-x-x-x-x-x-x-|-x-x-x-x-x-7-7-8-|-9---------------|-9---------7-7-8-|
A|-9-x-x-x-x-x-x-x-|-x-x-x-x-x-7-7-8-|-9---------------|-9---------7-7-8-|
E|-7-x-x-x-x-x-x-x-|-x-x-x-x-x-5-5-6-|-7---------------|-7---------5-5-6-|
OUTRO x4 (same as VERSE)
"Hey!... Hey!...Woohoo!"
e|-----------------|-----------------|-----------------|-----------------|
B|-----------------|-----------------|-----------------|-----------------|
G|-------8-9-9-x---|-------7-x-------|-------8-9-9-x---|-------7-x-------|
D|-9-9-x-8-9-9-x-6-|-7-7-x-7-x-7-7-8-|-9-9-x-8-9-9-x-6-|-7-7-x-7-x-7-7-8-|
A|-9-9-x-6-7-7-x-6-|-7-7-x-5-x-7-7-8-|-9-9-x-6-7-7-x-6-|-7-7-x-5-x-7-7-8-|
E|-7-7-x---------4-|-5-5-x-----5-5-6-|-7-7-x---------4-|-5-5-x-----5-5-6-|

END ON x1
e|-----------------|
B|-----------------|
G|-----------------|
D|-9---------------|
A|-9---------------|
E|-7---------------|