You are on page 1of 8

Standard tuning

INTRO: G, Bm, C, D x2

CHORUS:
G

Bm

I can still recall, our last summer

Bm

I still see it all

Bm

Em

Walks along the Seine, Dancing in the rain

Bm

Gsus

Our last summer, memories that remain

VERSE:

Em

We made our way along the river

C G

Am

And we sat down in the grass by the Eiffel tower

I was so happy we had met

It was the age of no regret

D7 G
Ohhhh yes

Em

Those crazy years that was the time

Em

Of the flower-power

Am
But underneath

Am
We had a fear of flying

Am
Of growing old

Am
A fear of slowly dying

Am
We took our chance

Dsus D
Like we were dancing our last dance

CHORUS:
G

Bm

I can still recall, our last summer

Bm

I still see it all

Bm

In the tourist jam, Round the Notre Dame

Bm

Our last summer, walking hand in hand

Bm

Paris restaurants, Our last summer

Bm C

Morning croissants

Bm

Living for the day, worries far away

Bm

Gsus G

Our last summer, we could laugh and play

BRIDGE:

Em

And now you're working in a bank

Am

A family man, a football fan

Am

And your name is Harry

Am
How dull it seems

Am

Dsus

Are you the hero of my dreams

CHORUS:

Bm

I can still recall, our last summer

Bm

I still see it all

Bm

In the tourist jam, Round the Notre Dame

Bm

Our last summer, walking hand in hand

Bm

I can still recall, our last summer

Bm

I still see it all

Bm

Em

Walks along the Seine, Dancing in the rain

Bm

Gsus

Our last summer, memories that remain

For those who don't read sheet music:


rit. = slow down tempo
atempo = same tempo you used at the beginning (ending the rit.)

CHORUS:
G

Bm

e--------------------------------------------------------------|
B-------------------------0------------3-----------1-----------|
G----------------------------0------------4-----------0--------|
D-----------------------------------4-----------2--------------|
A----------------------2---------2-----------3-----------------|
E-------------------3------------------------------------------|
I can still recall,

our last summer

Bm

e-----------------------------------------------------------------|
B-------------3-------------0--------------3---------------1------|
G---------2-------2-------------0--------------4---------------0--|
D-----0---------------------------------4--------------2----------|
A------------------------2----------2--------------3--------------|
E--------------------3--------------------------------------------|
I still see it all

Bm

Em

e---------2-----------------------------------------------------------|
B-------------3---------------0---------------3---------------0-------|
G-----2-----------2---------------0---------------4---------------0---|
D-----------------------------------------4---------------2-----------|
A-------------------------2-----------2---------------2---------------|
E---------------------3-----------------------------------------------|
Walks along the seine,

dancing in the rain

rit.
Bm

Gsus

e----------------------------------------------3----3----3----3----|
B-----------3-----------1-------------3--------1----1----1----1----|
G--------------4-----------0-------2------2----0----0----0----0----|
D--------4-----------2---------0---------------0----0----0----0----|
A-----2-----------3----------------------------0----0----0----0----|
E----------------------------------------------3----3----3----3----|
Our last summer,

memories that remain

G
e-----3----3----3----3---|
B-----0----0----0----0---|
G-----0----0----0----0---|
D-----0----0----0----0---|
A-----2----2----2----2---|
E-----3----3----3----3---|

THE REST IS STRUMMED! IF YOU REALLY WANT TO PLAY THE REST IN


ARPEGGIOS,IT IS THE SAME PATTERN, SO NOT TOO TO HARD TO FIGURE OUT.