Basic lesson to exercise fingers and dexterity.

Classical style melody.
Great for warming up!
Start at a slow tempo then gradually speed up the tempo throughout.
Repeat any figure as many times as you want.
As always, have fun!
----------------------------------------------------------------------------Written and Tabbed by: Dominic Barroga (Amblividon)
Watch the video lesson!
http://www.youtube.com/watch?v=_SZe6UaZP4U
Tuning: EADGBE
FINGERS:
I= INDEX
M= MIDDLE
R= RING
P= PINKY
Fig 1.
e|--------------------------|--------------------------|---------------------|
B|*-------------------------|--------------------------|---------------------|
G|--------------------------|--------------------------|---------------------|
D|*--5--8--7--8--5--8--7--8--|--5--8--7--8--5--8--7--8--|--4--7--5--7--4--7--|
A|--------------------------|--------------------------|---------------------|
E|--------------------------|--------------------------|---------------------|
I P R P
I P M P
e|------|--------------------------|------------------------------|----------|
B|------|--------------------------|------------------------------|----------|
G|------|--------------------------|------------------------------|----------|
D|5--7--|--4--7--5--7--4--7--5--7--|--7--10--8--10--7--10--8--10--|--7--10---|
A|------|--------------------------|------------------------------|----------|
E|------|--------------------------|------------------------------|----------|
I P M P
1X
e|---------------------|--------------------------|--------------------------|
B|---------------------|--------------------------|--------------------------|*
G|---------------------|--------------------------|--------------------------|
D|8--10--7--10--8--10--|--5--8--7--8--5--8--7--8--|--8P-5---5--10P-7---7-----|*
A|---------------------|--------------------------|-------6----------8-------|
E|---------------------|--------------------------|--------------------------|
I P R P
P I M I P I M I
FIG 2.
e|--------------------------|--------------------------|---------------------|
B|*-------------------------|--------------------------|---------------------|
G|--------------7-----------|--------------7-----------|--------------5------|
D|*-5--8--7--8-----8--7--8--|--5--8--7--8-----8--7--8--|--4--7--5--7-----7---|
A|--------------------------|--------------------------|---------------------|
E|--------------------------|--------------------------|---------------------|
I P R P M P R P
I P M P M P
e|------|-----------------|------------------------------|-------------------|
B|------|-----------------|------------------------------|-------------------|
G|------|--------------5--|----------------8-------------|----------------8--|
D|5--7--|--4--7--5--7-----|--7--10--8--10-----10--8--10--|--7--10--8--10-----|
A|------|-----------------|------------------------------|-------------------|
E|------|-----------------|------------------------------|-------------------|

A.H.~ I P

M

P M

P M P

1X
e|-----------|--------------------------|--------------------------------|---|
B|-----------|--------------------------|--------------------------------|---|
G|-----------|--------------7-----------|------------------------------*-|---|
D|10--8--10--|--5--8--7--8-----8--7--8--|--8P-5-----5--10P-7-----7-------|---|
A|-----------|--------------------------|--------6------------8--------*-|---|
E|-----------|--------------------------|--------------------------------|---|
I P R P R P R P
P I M I P I M I
FIG 3.
e|---------------------------|--------------------------|--------------------|
B|---------------------------|--------------------------|--------------------|
G|*--------------7-----------|--------------------------|--------------5-----|
D|---5--8--7--8-----8--7--8--|--5--8--7--8--5--8--7--8--|--4--7--5--7-----7--|
A|*--------------------------|--------------------------|--------------------|
E|---------------------------|--------------------------|--------------------|
I P R P R P R P
I P R P
I P M P M P
e|------|--------------------------|------------------------------|----------|
B|------|--------------------------|------------------------------|----------|
G|------|--------------------------|----------------8-------------|----------|
D|5--7--|--4--7--5--7--4--7--5--7--|--7--10--8--10-----10--8--10--|--7--10---|
A|------|--------------------------|------------------------------|----------|
E|------|--------------------------|------------------------------|----------|
M P
I P M P
I P M P M P M P
I P
e|---------------------|--------------------------|--------------------------|
B|---------------------|--------------------------|--------------------------|
G|---------------------|--------------7-----------|--------------------------|
D|8--10--7--10--8--10--|--5--8--7--8-----8--7--8--|--8P-5-----5--10P-7-----7-|
A|---------------------|--------------------------|--------6------------8----|
E|---------------------|--------------------------|--------------------------|
M P
I P R P R P R P
P I M I P I M I
1X END
e|---||----------------------------------------------------------------------|
B|---||----------------------------------------------------------------------|
G|*--||----------------------------------------------------------------------|
D|---||----------------------------------------------------------------------|
A|*--||----------------------------------------------------------------------|
E|---||----------------------------------------------------------------------|
© 2000
************************************

Sign up to vote on this title
UsefulNot useful