Fingerstyle Exercises

E Chord -->
Ex 1
Ex 2
Ex 3
+------------0-----++----------0----++-----0----0-----++-+
|------------------||---------------||----------------||-|
|------------------||---------------||----------------||-|
|------------------||---------------||----------------||-|
|------------------||---------------||----------------||-|
+------0--0--0--0--++--0--0--0---0--++--0--0--0---0---++-+
Ex 4
Ex 5
Ex 6
+--------0----0-----++---------0-----++--0------0------++-+
|-------------------||----0----------||----0-----------||-|
|-------------------||---------------||----------------||-|
|-------------------||---------------||----------------||-|
|-------------------||---------------||----------------||-|
+------0---0--0--0--++--0---0--0--0--++--0---0--0--0---++-+
C Chord -->
Ex 7
Ex 8
Ex 9
+------3-----0-----++--3------------++--3--------3----++-+
|------------------||-------1-------||-------1--------||-|
|------------------||---------------||----------------||-|
|------------------||---------------||----------------||-|
|------3--3--3--3--||--3--3---3--3--||--3--3---3---3--||-|
+------------------++---------------++----------------++-+
Ex 10
Ex 11
Ex 12
+------3------0-3----++--3-----3-----++--3----3-------++-+
|-----------1--------||--------------||---------------||-|
|--------------------||--------------||---------------||-|
|--------------------||-----2-----2--||-----2------2--||-|
|------3--3---3---3--||--3-----3-----||--3------3-----||-|
+--------------------++--------------++---------------++-+
Ex 13
Ex 14
Ex 15
+------3----0-------++--3----0---3----++--3------0-3-----++-+
|-------------------||----------------||-------1---------||-|
|-------------------||----------------||-----------------||-|
|---------2------2--||-----2-------2--||-----2-------2---||-|
|------3------3-----||--3------3------||--3------3-------||-|
+-------------------++----------------++-----------------++-+
A Chord (002225 fingering) -->
Ex 16
Ex 17
Ex 18
+--------3-----0-3----++-----5----5----++-----5--3-----++-+
|------------1--------||---------------||--------------||-|
|---------------------||---------------||--------------||-|
|----------2-------2--||-----2------2--||-----2-----2--||-|
|------3-------3------||--0-----0------||--0-----0-----||-|
+---------------------++---------------++--------------++-+
G Chord -->
Ex 19
Ex 20
Ex 21
+---------5--3-5----++-----5---3-5----++--3-----3------++-+
|-------------------||-------2--------||---------------||-|
|-------------------||----------------||---------------||-|
|---------2------2--||-----2-------2--||-----0-----0---||-|
|------0-----0------||--0------0------||---------------||-|

+-------------------++----------------++--3-----3------++-+ Ex 22 Ex 23 Ex 24 +------3-----0-----++--3-----0-3----++--3------0-3----++-+ |------------------||---------------||-------3--------||-| |------------------||---------------||----------------||-| |---------0-----0--||-----0------0--||-----0-------0--||-| |------------------||---------------||----------------||-| +------3-----3-----++--3-----3------++--3------3------++-+ Ex 25 Ex 26 Ex 27 +------3-----0-3----++-----------3----++--3--0-----3---+-------3------++-+ |----------3--------||---0-----0------||---------0-----|-0---0--------||-| |-------------------||-------3--------||-------3-------|---3----------||-| |--------0-------0--||-----0-------0--||-----0-------0-|-----0------0-||-| |-------------------||----------------||---------------|--------------||-| +----3-------3------++-3-------3------++--3------3-----+-3-------3----++-+ G Chord C Chord Ex 28 +-----3--0----0-----+----0-3-------++-+ |-----------3-----1-|-1------------||-| |-------------------|--------------||-| |--------0------0---|----2------2--||-| |-------------------|-3------3-----||-| +-----3-----3-------+--------------++-+ .

Sign up to vote on this title
UsefulNot useful