You are on page 1of 3

김현중 - 내 머리가 나빠서 (Acoustic Version)

Kim Hyun-Joong (SS501) - Because I'm Stupid (Acoustic Version)

Guitar duet by keudae & mfloyuinaruto


Original key: Bm
Acoustic key: Bbm
Guitar duet key: Am

Guitarist 1: Chords
Verse:
Am Em F G C
F G C F E7

Am Em F G C
FGC
F E7 Am

Prechorus:
FM7 G Am
FM7 G Am
FM7 G Am
Dm7 E7

Chorus:
FGC
FGC
F G Am
F G Am
F G Am
F G Am

Bridge (same as prechorus):


FM7 G Am
FM7 G Am
FM7 G Am
Dm7 E7

Repeat chorus

--------------------------------------------------

Guitarist 2: Tabs

Verse:
e |----------------------------------------------------------|
b |----------------------------------------------------------|
g |--2-2-2-2-2-2-2-0-0-0--2--------------------------|
d |----------------------------------0-------------0----2--|
a |-0-----------------------------------3-3-0-3-----3----|
e |----------------------------------------------------------|

e |-----------------------------------------------------------------------|
b |-----------------------------------------------------------------------|
g |-----------------------------------------------------------------------|
d |--2-0---------------0---2----2-0---------------0----2----2-0-2-|
a |--------3-3-3-0-3---3------------3-3-3-0-3-----3--------------|
e |-----------------------------------------------------------------------|

e |----------------------------------------------------------------|
b |----------------------------------------------------------------|
g |---2-2-2-2-2-2-2--0-0---2------------------------0------|
d |----------------------------------0-------------0--------0-2-|
a |-0-----------------------------------3-3-0-3-----3----------|
e |----------------------------------------------------------------|

e |-----------------------------------------------------------------------|
b |-----------------------------------------------------------------------|
g |--------------------------0-------------------------------------------|
d |--2-0---------------0-----0-2----2-0-----------------------------|
a |--------3-3-3-0-3---3----------------3-3-3-0-2-3-2-0-2-0--|
e |----------------------------------------------------------------------|

Prechorus:
e |-----------------------------------------------------------|
b |-----------------------------------------------------------|
g |-----------------------------------------2-0-0-2-0-2--|
d |-2--2--0-2-3-2---------0-2-2--2--------------------|
a |-------------------------3--------------------------------|
e |-----------------------------------------------------------|

e |---------------------------------------------------------------|
b |----------------0-1-3-1-0-------0-1--1-1-3-1-0-1-0--|
g |----0-2-2--2---------------2--2---------------------------|
d |--2-----------------------------------------------------------|
a |---------------------------------------------------------------|
e |---------------------------------------------------------------|

Chorus:
e |--0-----------------------0------0-------------------------3---0--|
b |----3-1--1-1---1-3-1------------3-1---1-1---1-3-1----3-----|
g |----------------2---------------------------------2------------------|
d |----------------------------------------------------------------------|
a |----------------------------------------------------------------------|
e |-----------------------------------------------------------------------|

e |--0-----------------------5--------------------------------------------|
b |----3-1--1-1---1-3-1-----4-3-1-----0-1-1-1-1-0-1-0---0----|
g |----------------2-----------------------2----------------------2---2--|
d |-------------------------------------------------------------------------|
a |-------------------------------------------------------------------------|
e |-------------------------------------------------------------------------|

e |--------------------------------------0----------------------------------|
b |----0-1-1-1-1-0-1-0---0-----------3-1-1-1-----0-1-0---0------|
g |--2----------------------2---2--------------------2----------------2--|
d |--------------------------------------------------------------------------|
a |--------------------------------------------------------------------------|
e |--------------------------------------------------------------------------|

Bridge:
e |--0--0-0--0-1-0---------0-0---0---0-3-0--|
b |----------3------------1-3----------3----------|
e |------0-0--0---0-3-5--0---0------------------------------|
b |--1-3--------3-------------3-------0-1---1-1-3-1-1-0---|
g |------------------------------------2--------------------------|

Repeat chorus -- end.