All Of Me

*********
<<TAB generated by LickByNeck software>>
!!Download this FREE software and hundreds of SOLO guitar arrangements
at www.LickByNeck.com !!
All Of Me played in the key of A.
E| 5------------------------------|-------------------- 7-------- 4|
B| 5---- 5------------------------|------------10--------10------ 6|
G| 6---------- 6------------------|------ 9------------------------|
D|--------------------------------|---- 7--------------------------|
A|--------------------------------|------------------------------ 4|
E| 5---------------------- 7---- 9|--------------------------------|
E|--------------------------------|------------------------------ 2|
B|------------------ 6---------- 2|------ 2------ 2---- 2-------- 2|
G|------------------ 6---------- 4|------ 4------ 4---- 4-------- 3|
D|------------------ 6---------- 3|---- 3-------- 3---- 3----------|
A|------ 6------ 8-------------- 4|--------------------------------|
E|--------------------------------|------------ 3------------------|
E|--------------------------------|--------------------------------|
B|---- 2-- 5---- 2------ 2--------|---------- 7------ 8-- 7------ 5|
G|-------- 4---- 4------ 4--------|------ 6---------------------- 2|
D|---- 2---- 3-- 2---- 2----------|---- 4------------------------ 4|
A|--------------------------------|------------------------------ 2|
E| 2---- 3---- 3 4-------------- 6|--------------------------------|
E|--------------------------------|--------------------------------|
B|-------------- 5------------ 3--|---- 3-------- 3----------------|
G|------------ 2-------- 2--------|---- 4-------- 4------11----10--|
D|--------------------------------|---- 4------ 4--------10---- 9--|
A|--------------------------------|--------------------------------|
E|--------------------------------|---- 5------------------10-- 9--|
E|---------------------------- 9--|------------------ 9------------|
B|----12--------12------------ 9--|----12--------12-- 9--12------12|
G|----10--------------10------10--|----10--------10--10--10------ 9|
D|---- 9----------11--11----------|---- 9-------- 9------12------11|
A|----------------11--11----------|----------------------10------ 9|
E|---------------------------- 9--|-------------- 9----------------|
E|--------------------------------|--------------------------------|
B|------12------------10------10--|--------------------------------|
G|------ 9------------11------11--|----11------10------ 9------ 9 8|
D|------11------------11------11--|----10------ 9------ 8------ 8 7|
A|--------------------------------|----11-------------- 9----------|
E|--------------12------------11--|------------ 9-------------- 8--|
E|------ 7------ 7---- 7----------|------ 7------------ 7----------|
B|------ 9------ 9---- 9------ 9--|------ 9------ 9---- 9------ 7--|
G|------ 8------ 8---- 8------ 8--|------ 8-------- 8-- 8------ 7--|
D|------ 7------ 7---- 7------ 7--|---------------- 7---------- 7--|
A|---------------------------- 6--|--------------------------------|
E| 7------------------------------|---- 7---------------------- 7--|

1--------------|-----------------------------.6-.6--------| A|--------------------------------|-------------.0---.4--------|---.5--------| G|-------.7---.5-----.4---.3-----.2---------.9--------------10--|--------------------------------| E|--------------------------------|----------------12--1110---.3-----.4------------------| D|---.4-----.3------------------| A| 4-------------.7---.5---.4-----.6-.0--------------| E|---.2--|-----.2------|---.2-----.3----|-----.2-----.7 9------------10--|------10------------------------| E| 5------------------------------|--------------------------------| B| 7---.7-.9--|--------------------------------| B|---.5---.8--|---------------------.2--------|---.9----------|-------------.5-----.5---.4---------.4---.4---.3-------.4-----.9--| D|-------------------.3|--------------------------------| E|--------------------------------|--------------------------------| B|-----.7-.3--|---.4-----.2---.9--| G|---.6---------.6-------.8-------.5-----.7-.2----|-----.3-------.5-----.4-----------.7---.0-.7--------| D|-------------.4-.5-.1----------|---.7-----.9| G| 6-----.E|--------------------------------|--------------------------------| B|-----.5-.2--------10--12--10-----.3-----.5-----.1-----.6-------.1-------.3---.5---.0------| E| 5------------------------------|---------------.7-----.7------10| G|-----.9-----.0-------.2-----.7--------------------------|---.7---.9------11--|-------------.2---.9--|-----------------------------.6|---.2-------------.6-----.7|---.6 6--------| D|-----------.9--------------------------| B|----10--10----10----10------10--|----10-------.9--| A|-----------.4-----.4--------------| D|---.7---.9--10--10-----.2--------------| A|-------.0-----.2------------------| G|-----.2-----.9--| E|--------------------------------|--------------------------------| B|-----.6---.6-.4--|---.9----|---------------------.2-------.4|---------------.9-------.6| G|-----------.9---.2----------|---.4-----.9---.6----------| D|-----.5|---.2-------.9-----.5--------------| G|---.9-----------------.9| .0------|---.1-------.3-------.2---------.9--|--------------------------------| E|--------------------------------|-----.9------10--|--------------12-----------.4| A|-------.4--|--------------------------------| E|--------------------------------|-----.9-----------.7--------------| E| 5------------------------------|--------------------------------| E|--------------------------------|--------------------------------| B|-------------------.7-------.9---.9| D|-------.6---.2-----.9--10--11-----.7| D|---.9----------|--------------12----1110---.2-----.2| E| 2---------------------------.7| A|--------------10-----------.5| G| 3---.7---------.4-----.1----------| E| 2------------------------------|-------------.2------|---.3-----.3---.3----------------| G|-----.3-----------.7--------10----10------10--|----12---------------------.9--------11-----------.2----------|---.5----------| A|--------------------------------|-------------------.3 2--------| B| 2---.6-----.5---------.7-----.2-------.9---.6-------------.6 7|--------------------------------| E|--------------------------------|-------.2--------------------------| A| 3---------.5-----.2----------|---.2--|---.2--|-----.6---.5 5-----.2-------.5| E|-----.4-----.5-----.3-------.2| D|-----.7------| E|-----.6-----.2-------.5-----.4-----.7 5-----.5---------.2 2-----.7---.7| E|---.4| B| 5-.7-----.7---.

LickByNeck. 1.9----------------|--------------------------------| E|--------------------------------| 7------------------------------| E|--------------------------------|--------------------------------| B|--------------------------------|--------------------------------| G|--------------------------------|--------------------------------| D|--------------------------------|--------------------------------| A|--------------------------------|--------------------------------| E|--------------------------------|--------------------------------| If you like this LickByNeck work. Give a Create Tell a Give a All of Donation at www. or. 5. 3.5---. testimonial to www. or.A| 6-----.9----1011--------| E|---------------------------.4----------------|-------------. feel free to support LickByNeck by: or.9| E|--------------------------------|--------------------------------| B|--------------------------------|--------------------------------| G|-------------.9----------------| 6------------------------------| D|-------------.com. and contribte some LickByNeck content.3 2|-----------------------------.LickByNeck. 2.com the above :-) Have a nice day !! . 4.8----------------| 8------------------------------| A|-------------. friend about the site. or.

Sign up to vote on this title
UsefulNot useful