You are on page 1of 2

Intro: A-E/G#-F#m-E-D-A/C#-Bm-Esus4-E

Piano:
e|-------9-------12---10-9----9-----9--10--9--14--12--9--10--9-----------|
B|-10-12---12-10-----------12---10-----------------------------12-10--12-|
G|-----------------------------------------------------------------------|
D|-----------------------------------------------------------------------|
A|-----------------------------------------------------------------------|
E|-----------------------------------------------------------------------|
Verse 1:
A
E/G#
F#m
I remember the days when you're here with me
D
A/C#
Bm
Esus4-E
Those laughters and tears we'd shared for years hmmm..
A
E/G#
F#m
Memories that we had for so long it's me and you
D
A/C#
Bm
B F#sus4-F#
Now you're gone away, you left me all alone
B
F#/Bb G#m
E
B/D#
Do un-----to to an but please don't leave me
C#m
F#sus4-F#
will break my heart
B
F#/Bb G#m
Hey what should I do be by missing you
E
B/D#
C#m
F#sus4
Please don't disappear these are the words wishing me
D
A/C#
Bm
A Esus4-E
Time and time again I wish that you were here
Chorus:
A
E/G#
F#m
D
I don't want to lose you girl I need you back to me
E
A
E/G# F#m
D
I don't want to lose you baby Can't you see
E
A
E/G#
F#m
D E
Oh I need you, you've been a part of me
Post Chorus:
D A/C#
I wish someday
D
A/C#
Cause I really
D
A/C#
Please come home

Bm
A/C# E
you'll be back home
Bm
A/C# E
miss you darling
Bm Esus4 E

Interlude: A--C#m--F#m--D-E, A--E/G#--F#m--D-E x2


Guitar Solo: x means palm mute
A
C#m
F#m
D
E
A
e|-5/9--9-|--9----------|-------------|-----------|---------9-|-10-10p9---------|
B|--------|----12-10----|-10----------|-----------|-9-10-12---|-------------9/12
-|
G|--------|----------11-|-----9----11-|------9-11-|-----------|-----------------

-|
D|--------|-------------|-------11----|-9-11------|-----------|---------11------|
A|--------|-------------|-------------|-----------|-----------|-----------------|
E|--------|-------------|-------------|-----------|-----------|-----------------|
x x x x
C#m
F#m
D
E
A
e|---------12h14--14p12-|-----|------------|----------|--------|
B|-12\9-----------------|-----|------------|-9------9-|-10--10-|
G|----------------------|-----|-11-9----11-|---11-9---|--------|
D|-------9--------------|-----|------12----|----------|--------|
A|----------------------|-12--|------------|----------|--------|
E|----------------------|-----|------------|----------|--------|
E/G#
F#m
D
E
D(Post Chorus)
e|-9--12-9--12-9--12-|-14--17-14-|-14-12-------|-14-12-19-|-17-|
B|-------------------|-----------|-------15----|----------|----|
G|-------------------|-----------|----------14-|----------|----|
D|-------------------|-----------|-------------|----------|----|
A|-------------------|-----------|-------------|----------|----|
E|-------------------|-----------|-------------|----------|----|
(Repeat Post Chorus)
Outro: A--E/G#--F#m--D--E--A(Hold)