You are on page 1of 4

EDWARD MAYA - STEREO LOVE

http://www.youtube.com/watch?v=wwckRJnT4m0
Capo : 4th fret
CHORDS : Am F C Em
Symbols :

^
/
\
<12>
t

=>
=>
=>
=>
=>

Pull Off
Slide up
Slide down
harmonic at the 12th fret
Tap with strumming hand

(My) Intro
E
B
G
D
A
E

||----5-------|----1-------|----3-------|----0-------|
||---5--------|---1--------|---5--------|---0--------|
||--5---------|--2---------|--5---------|--0---------|
||------------|------------|------------|------------|
||------------|------------|------------|------------|
||------------|------------|------------|------------|

E ||--5--------5---------5-------|--1--------1---------1-------|--3--------3--------3-------|
B ||-----5--------5-----------5--|-----1--------1-----------1--|-----5--------5----------5--|
G ||--------5--------5-----------|--------2--------2-----------|--------5-------5-----------|
D ||-----------------------------|-----------------------------|----------------------------|
A ||--0--------------------------|-----------------------------|--3-------------------------|
E ||-----------------------------|--1--------------------------|----------------------------|
E
B
G
D
A
E

||--0--------0----------------0---|-------<12>----||
||-----0---------0-----------0----|-------<12>----||
||--------2---------2-------1-----|---------------||
||--------------------------------|---------------||
||--------------------------------|---------------||
||--0---------------------0-------|---------------||

(Song) Intro
E
B
G
D
A
E

||-----------------|-----1-------|-------0-0-0-0--|----------------------|
||-----1-----3/5---|----1--------|-------1-1-1-1--|---3------3/5---3--0--|
||----2------------|---2---------|-------0-0-0-0--|---0----0-------------|
||---2-------------|-------------|----------------|---0--0---------------|
||--0--------------|-------------|--3-------------|---2------------------|
||-----------------|--1----------|----------------|----------------------|
When you gonna stop breaking my

E ||---------------------|---------------|------0-0-0-0-3-3-|----------------------|
B ||-----1--------131-0--|----1----1-----|------1-1-1-1-1-1-|------3------3/5---

3-0-|
G ||----2-----2----------|---2---2-----2-|------0-0-0-0-0-0-|-----0----0-----------|
D ||---2----2------------|---------------|------------------|----0---0-------------|
A ||--0------------------|---------------|--3---------------|---2------------------|
E ||---------------------|--1------------|------------------|----------------------|
heart ...
I don't wanna be
another
E ||--------------------|-----1--------1---|------0-0-0-0--|---------------------|
B ||-----1-----1---3/5--|----1-----1----1--|------1-1-1-1--|---3------3/5---3-0--|
G ||----2------2--------|---2----2-------2-|------0-0-0-0--|---0----0------------|
D ||---2----2--2--------|------------------|---------------|---0--0--------------|
A ||--0-----------------|------------------|--3------------|---2-----------------|
E ||--------------------|--1---------------|---------------|---------------------|
one ...
Paying for the things I never
E ||---------------------|------------------|--------------------|--------------------||
B ||-----1--------131-0--|----1-----1---111-|-----------1----110-|-----------0--0---0-||
G ||----2-----2----------|---2---2----------|--------0-----------|--------0-----------||
D ||---2----2------------|------------------|-----2--------------|-----0--------------||
A ||--0------------------|------------------|--3-----------------|--------------------||
E ||---------------------|--1---------------|--------------------|--0-----------------||
done ...
Don't let go .... Don't let go .... To
my love.
Bridge
E
B
G
D
A
E

||------------------|
||------------------|
||--2----2------2---|X2
||-----2------2---2-|
||--0---------------|
||------------------|

|--0--------0------0---|
|--1-----3--1-----1--1-|
|--2-----2--2----2-----|X8
|----------------------|
|--0------------0------|
|----------------------|

Accordion Theme
E ||---------------------|------------------|------------------|----------------------|
B ||-----1--t-1---0^1^31-|--0^1---0---------|------------------|----------------------|
G ||-----2--t-2---2------|--0---2---0^2---0-|------------------|----------------------|

D ||-----2--t-2---2------|--------------3---|--2------2-2-2-2--|--0-------0--0^2
---0---|
A ||--0------------------|------------------|--3---------------|--------2-----------2-|
E ||---------------------|--1---------------|------------------|--0-------------------|
I hate to see you cry, Your smi
le is a beautiful
E ||---------------------|------------------|------------------|----------------------|
B ||-----1--t-1---0^1^31-|--0^1---0---------|------------------|----------------------|
G ||-----2--t-2---2------|--0---2---0^2---0-|---------------00-|----------------------|
D ||-----2--t-2---2------|--------------3---|--2-------2--2----|-------0---0^2--0---0-|
A ||--0------------------|------------------|--3-----3--3------|-----2------------2---|
E ||---------------------|--1---------------|------------------|--0-------------------|
lie ...
I hate to see you cry, My love
is dying inside

This Theme is repeated 2 times.

Chorus
E ||-------------------|-----------1-----1-|-----0-------0-----|---------------------|
B ||-----1--t-1-1----3-|-----1-------1-----|----1----------3-1-|-----3------3-31-0^1-|
G ||----2---t-2-2--2---|----2----------2---|---0-------0-------|----0-------0-0------| X3
D ||---2----t-2-2------|---3-----3---------|---------2---------|---0------0-0-0------|
A ||--0----------------|-------------------|--3----------------|--2------------------|
E ||-------------------|--1----------------|-------------------|---------------------|
I can fix all those lies, but baby baby I run, but i'm running to you. You wo
n't see me
cry... I'm hidding inside, My heart is in pain but I'm smiling for you. Oh
baby I'll
try... to make the things right, I need you more than air when I'm not with y
ou. Please don't ask me
E ||--------------------|-----------1-----1-|-----0------0-----|-----------------------|
B ||-----1--t-1-1----3--|-----1-------1-----|----1---------3-1-|-----3-----3-----------|
G ||----2---t-2-2--2----|----2----------2---|---0------0-------|----0----0-----0-----0-|
D ||---2----t-2-2-------|---3-----3---------|--------2---------|---0---0----------0----|
A ||--0-----------------|-------------------|--3---------------|--2-------------

--------|
E ||--------------------|--1----------------|------------------|-----------------------|
why...just kiss me this time, My only dream is about you and I ...

Accordion Theme x2
I replay the (song) intro at the end but the very last chord is :
E
B
G
D
A
E

||-----5-------||
||----5--------||
||---5---------||
||-------------||
||--0----------||
||-------------||

Enjoy!
Chlo
berdol31@hotmail.fr

:)