You are on page 1of 5

add to favoriteslaunch autoscroll

font size
view tab on iPhone view tab on Android listen to this song
UG plus: remove banner
La Grange Lyrics
by Zz Top Lyrics
La Grange Tab
Instruments
Play Fretboard Chords
closeContributor
kaotik420 Learn to play "Zz Top" with online video lessons
b = 1/4 bend
B = 1/2 bend
FB = full bend
r = release
7FB-r5 = 7 full bend, release, pull-off to 5
guitar 1 (clean)
|------------------------------------|
|------------------------------------|
|-2-2--2--2--2--2---------5-----5b---|
|-2-2--2--2--2--2----5----2-----2----|
|------------------0---0-----0-------|
|------------------------------------|
after a while guitar 2 plays this:
|--------------------------|
|--------------------------|
|-2-2--2--2--2--2----------|
|-2-2--2--2--2--2----------|
|-0-0--0--0--0--0----3--5--|
|--------------------------|
during Solo Guitar 1 plays:
or
this also sounds ok, but is incorrect:
|---------------------------------|
|---------------------------------------|
|---------------------------------|
|---------------------------------------|
|---------------------------------|
|--------------------------------8--10--|
|-10--10--10--10-----8-----10-----|
|----10-10--10--10--10--10---10--8--10--|
|-10--10--10--10-----6-----8------|
|----10-10--10--10--10--10---10---------|
|-----------------8-----8------8--|
|---------------------------------------|
Solo
|----------8----------------------------------|
|-11b~-------11-8-11p8----8-------------------|
|----------------------10----8-------10-8-----|
|--------------------------------10-------10--|
|---------------------------------------------|
|---------------------------------------------|
|---------------------------------|---------------------------|
|---------------------------------|---------------------------|
|--10-----------------------------|---------------------------|
|-----10~---------8---------------|--10~----------8-----------|
|------------8h10---10\8--6--8--6-|---------8h10-----10\8--6--|
|---------------------------------|---------------------------|
|----------------------------------------------|------------------------|
|----------------------------------------------|------------------------|

|---------8FB--x-------------------------------|------------------------|
|-10--10---------x--------8--------------------|-------8----------------|
|-------------------8h10----10\8--6--8--6------|-8/10----10\8--6--8--6--|
|-----------------------------------------8--8-|------------------------|
|-------------------------|-----------------------------------|---------------------|
|-------------------------|-11----11----11-----11\------------|---------------------|
|------------------10/11--|----12----12----12------10--8B-----|---------------------|
|--/10--10~-----10--------|--------------------------------10-|-------8-------------|
|-------------------------|-----------------------------------|--8h10----8--6--8
--6--|
|-------------------------|-----------------------------------|---------------------|
|----------------------------|-------------------------|--------------------------------------|
|----------------------------|-------------------------|--------------------------------------|
|----------------------------|----------------10--8b---|-------------------8FB--8FB~----------|
|----------------------------|-------8-----10----------|-10~---10--8--10----------------8-----|
|-----------6-----6--8p6--8--|-8/10-----10-------------|----------------------------------10--|
|-8---8-6h8----8-------------|-------------------------|--------------------------------------|
|--------------------|---------------------------|-------------------------------|
|--------------------|------11--11--11--------11-|--11--10/11--11----------------|
|-8FB---8--8---------|-8/12------------10\12-----|--12--11/12-----12\10--8--10FB
--|
|-------------10~----|---------------------------|-------------------------------|
|--------------------|---------------------------|-------------------------------|
|--------------------|---------------------------|-------------------------------|
|-----8-----------------------------|-------------------------------|----------------------|
|--8-----11p8-----8-----------------|-------------------------------|----------------------|
|--------------10---8----10--10---8-|-------------------------------|----------------------|
|---------------------10------------|------8------------------------|-------8--8
--8------8--|
|-----------------------------------|-8h10----10-10--9-\6-----------|---/10---------10-----|
|-----------------------------------|----------------------8--8--6--|-8--------------------|
|---------------------------|------------------------------------|---------------------------|
|------------------------11-|-------11----11----11----11----11\--|-----11----11-

--------------|
|------------8----10/12-----|*--/12----12----12----12----12-----*|-/12----12---\10--8--------|
|-10-10--10----10-----------|*----------------------------------*|--------------------10--8--|
|---------------------------|-------------(4 times)--------------|---------------------------|
|---------------------------|------------------------------------|---------------------------|
|--------------------------|-------------------------------|--------------------------------|
|--------------11----11----|-11----11----11-----11----11\--|-----11----11----11---11----11\-|
|----------/12----12----12-|----12----12----/12----12------|-/12----12----12---12----12-----|
|-10~----------------------|-------------------------------|--------------------------------|
|--------------------------|-------------------------------|--------------------------------|
|--------------------------|-------------------------------|--------------------------------|
|--------------------------------|-------------------------------|----------------|
|-----11-----11-----11--11-------|-11--------11------------------|--------8--10---|
|-/12----/12----/12---------/12--|----10/12-----/10--8-----------|---8h9----------|
|--------------------------------|------------------------10~----|----------------|
|--------------------------------|-------------------------------|----------------|
|--------------------------------|-------------------------------|----------------|
Interlude: (guitars 1 & 2)
|-------5---5---5-|-----5---5---5-|-----5---5---5----------------------|
|-----------------|---------------|------------------------------------|
|.----------------|---------------|---------------------------2-------.|
|.--4/5---5---5---|-3/4---4---4---|-2/3---3---3---------------2-------.|
|-----------------|---------------|-----------------0--0--3h4-----0----|
|-----------------|---------------|------------------------------------|
Outro Solo:
|------------------|-------------------------|----------------------|
|------------------|-------------------------|----------8FB---8FB---|
|-----5------------|-7FB------5--------------|----------------------|
|--7-----7p5h7-----|-------------7~----------|----------------------|
|------------------|-------------------------|----------------------|
|------------------|-------------------------|----------------------|
|---------------|-------------------|---------------------------|
|-8FB--8FB~~r5--|-8--8FB~---8FB-r5--|-8-------------------------|
|---------------|-------------------|----7FB---7--5FB---7--5FB--|
|---------------|-------------------|---------------------------|
|---------------|-------------------|---------------------------|
|---------------|-------------------|---------------------------|

|------------------|----------------------|-----------------------|
|------------------|--5--8----------------|-----------------------|
|----------5--7FB--|---------7FB---7--5FB-|--5FB---------5--7FB---|
|--7~--------------|----------------------|-------7~--------------|
|------------------|----------------------|-----------------------|
|------------------|----------------------|-----------------------|
|---------------------------|-----------------------|--------------------------|
|---------------------------|-----------------------|--------------------------|
|--7FB--7FB--7FB--7FB--7FB--|--7FB---5--------------|-------5FB---7---5--7FB---|
|---------------------------|-----------------7--5--|-7--7---------------------|
|---------------------------|-----------------------|--------------------------|
|---------------------------|-----------------------|--------------------------|
|----------------------------|---------------------------------8B----|
|----------------------------|------8--10FB-------8---10--10---------|
|--7FB-r5--7---5FB-r---------|--/9-----------------------------------|
|---------------------7~-----|---------------------------------------|
|----------------------------|---------------------------------------|
|----------------------------|---------------------------------------|
|----8---------------|---------------------------|------------------------5-|
|--------10----------|--8------------------------|------------------8--7----|
|---------------7/9--|-----\7---5--7FB----7---5--|---------------5----------|
|--------------------|---------------------------|--7~------5h7-------------|
|--------------------|---------------------------|--------------------------|
|--------------------|---------------------------|--------------------------|
|------------------------|-----------------------|------------------------|
|---7---5b---------------|-----------------------|------------------------|
|-----------7FB----5FB---|-----------------------|------------------------|
|------------------------|--7-----5b-------------|------------------------|
|------------------------|-----7------7\5----3b--|--5-----3b---5-----3b---|
|------------------------|-----------------------|-----5----------5-------|
|--------------------------|-----------------------|----------------------|
|--------------------------|-----------------------|----------------------|
|-----5b-----7FB-r--5b-----|--7--5b--7~----5--7FB--|--7FB--7FB--7FB--7FB--|
|--7------7-------------7--|---------------5-------|----------------------|
|--------------------------|-----------------------|----------------------|
|--------------------------|-----------------------|----------------------|
|---------------------|---------------------|--x-----------------|
|---------------------|---------------------|--x-----------------|
|-7FB--7FB--7FB--7FB--|-7FB--7FB--7FB--7FB--|--x--7FB--7FB--7FB--|
|---------------------|---------------------|--------------------|
|---------------------|---------------------|--------------------|
|---------------------|---------------------|--------------------|
|-------------------------|------------------------|-----5---------------------|
|-------------------------|---------------------5--|---------10~------10---10--|
|--7FB--7FB--7FB--7FB--5--|----------------5h6-----|---------------------------|
|-------------------------|--7---7~----------------|---------------------------|
|-------------------------|------------------------|---------------------------|
|-------------------------|------------------------|---------------------------|
|---8B------8---8--|--x--------------------------|------------------5----|
|------------------|-----10~-----8\5-------------|-------------5h6-------|
|------------------|------------------7--5h7--5--|-----------------------|
|------------------|-----------------------------|-7~--------------------|

|------------------|-----------------------------|-----------------------|
|------------------|-----------------------------|-----------------------|
|--5-----------------------|--8------------8-------------|
|--5--8~---------------8---|--8------------8-----7---5---|
|-----------------/9---9---|--9--------9---9-----7---5---|
|----------------------10--|-----------10----------------|
|--------------------------|-----------------------------|
|--------------------------|-----------------------------|
(starting to fade)
|------------------------------|-----7/8\7---8-----------|----------------|
|---5--5-----------------------|-----7/8\7---8-----------|----------------|
|---5--5-----------------------|-----8/9\8---9---/7--5---|--7FB-r5--7FB---|
|----------7--5----------------|-------------------------|----------------|
|----------------7--6--5-------|--0----------------------|----------------|
|-------------------------8--8-|-------------------------|----------------|
|------------------------|--------------------------------|------------------------|
|------------------------|--------------------------------|------------------------|
|---7FB---7FB--7FB--7FB--|--7FB--7FB--7FB--7FB-----5------|------------------------|
|------------------------|----------------------------7~--|----------5-------------|
|------------------------|--------------------------------|----5--7-----5-----5----|
|------------------------|--------------------------------|----------------8----8--|
this is taken from april 2005 issue of guitar one.. so it should be quite correc
t.
enjoy!
-Kaotik
Learn to play "Zz Top" with online video lessons