Padre Nuestro (Guitarra

)

Intro Arpegeado
Em
D
e|-0---0-----2--2-2--2-2--2-2--2-0--0-0--0-0--0-0-----|
B|-0--0-0-0---3----3----3----3----0----0----0----0----|
G|-0-0---0-----2----2----2----2----0----0----0----0---|
D|-2--------------------------------------------------|
A|-2--------------------------------------------------|
E|-0--------------------------------------------------|

C
G
Em
e|---------------------0----|
B|--------------------0-0---|
G|-----0------0------0---0--|(Se repite de acuerdo a los
D|----2------0------4-------|arreglos de la cancion)
A|-0-3------2---------------|
E|-------0-3---3-2-0--------|

Em
D
padre nuestro tu que estas,
Em
en los que aman la verdad
C
G
Em
que el reino que nos prometio
C
G
Em
llegue pronto a nuestro corazon
C
G
que el amor que tu hijo nos dejo
Em
D
Em
el amor habite en nosotros.

Em
D
en el pan de la unidad
Em
cristo danos tu la paz
C
G
Em
y olvidate de nuestro mal
C
G
Em
si olvidamos el de los demas
C
no permitas
G
Em
que caigamos en tentacion oh señor
D
Em
y ten piedad del mundo

Sign up to vote on this title
UsefulNot useful