You are on page 1of 4

-----------------------------------------------------------------RIGHT HERE WAITING FOR YOU – Richard Marx

-----------------------------------------------------------------Tabbed by: Graham Choo
Email: da_tweens@yahoo.co.uk
Tuning: Standard
Intro:
C
G
Am7
F
G
e|-------3-3-1-0-------------0-0h1-0---------------0---------------|
B|---------------3-------3-3-------------1-1---3-------3-1-0-------|
G|-----0---------------0-----------------0-0-----0-------0---2-0---|
D|---2---------------0-----------------2-----2-------3---0---------|
A|-3---------------------------------0-----------------------------|
E|-----------------3-------------------------------------3---------|
C
G
Am7
F
G
e|-------3-3-1-0-------------0-0h1-0-------------0-1---0-----------|
B|---------------3-------3-3-------------1-1---3---------3-1-0-----|
G|-----0---------------0-----------------0-0-------------0---------|
D|---2---------------0-----------------2-----2-------3---0---------|
A|-3---------------------------------0-----------------------------|
E|-----------------3-------------------------------------3---------|
Am
Am
e|-----------------------------------------------------------------|
B|-------0-1-----------0-1-----------------------------------------|
G|-----2-----2-------2-----2---------------------------------------|
D|---2---------2---2---------2-------------------------------------|
A|-0-------------0-------------------------------------------------|
E|-----------------------------------------------------------------|
Verse 1:
C9
F
Dm7
C/B
e|-------3-------3-------3-----------------------------------------|
B|-------3-----1-1-----1-1-------1-0-1-3---------------------------|
G|-----0-----2-------2-----------0---------------------------------|
D|---2-----3-------0-----------0-----------------------------------|
A|-3-----------------------3-2-------------------------------------|
E|-----------------------------------------------------------------|
C9
F
Dm7
C/B
e|-------3-------3-------3-----------------------------------------|
B|-------3-----1-1-----1-1---------3-1-0---------------------------|
G|-----0-----2-------2-----------0---------------------------------|
D|---2-----3-------0-----------0-----------------------------------|
A|-3-----------------------3-2-------------------------------------|
E|-----------------------------------------------------------------|

Pre-Chorus: Am Dm7 Am Dm7 e|-------0-----1-----------0-----1---------------------------------| B|-------1-1---1-----------1-1---1---------------------------------| G|-----2-----2-2---------2-----2-2---------------------------------| D|---2---------0-------2---------0---------------------------------| A|-0-------------3-2-0---------------------------------------------| E|-----------------------------------------------------------------| Chorus: C G Am7 F G e|-------3-3-1-0-------------0-0h1-0---------------0---------------| B|---------------3-------3-3-------------1-1---3-------3-1-0-------| G|-----0---------------0-----------------0-0-----0-------0---2-0---| D|---2---------------0-----------------2-----2-------3---0---------| A|-3---------------------------------0-----------------------------| E|-----------------3-------------------------------------3---------| C G Am7 F G e|-------3-3-1-0-------------0-0h1-0-------------0-1---0-----------| B|---------------3-------3-3-------------1-1---3---------3-1-0-----| G|-----0---------------0-----------------0-0-------------0---------| D|---2---------------0-----------------2-----2-------3---0---------| A|-3---------------------------------0-----------------------------| E|-----------------3-------------------------------------3---------| Interlude: Am Am e|-----------------------------------------------------------------| B|-------0-1-----------0-1-----------------------------------------| G|-----2-----2-------2-----2---------------------------------------| D|---2---------2---2---------2-------------------------------------| A|-0-------------0-------------------------------------------------| E|-----------------------------------------------------------------| Verse 2 Pre-Chorus Chorus Bridge: F C F F e|-1-----1-----1---0-----0-----0---1-----1-----1---1-----1-----1---| B|-1---1-----1---1-1---1-----1---1-1---1-----1---1-1---1-----1---1-| G|-2-2-----2-------0-0-----0-------2-2-----2-------2-2-----2-------| D|-3---------------2---------------3---------------3---------------| A|-----------------3-----------------------------------------------| E|-----------------------------------------------------------------| F C F F e|-1-----1-----1---0-----0-----0---1-----1-----1-------------------| B|-1---1-----1---1-1---1-----1---1-1---1-----1---1-1-----1-----1---| G|-2-2-----2-------0-0-----0-------2-2-----2-------0---0-----0---0-| D|-3---------------2---------------3---------------0-0-----0-------| A|-----------------3-----------------------------------------------| E|-------------------------------------------------3---------------| .

Solo: e|-3-3-1-0---------------------------------------------------------| B|---------3~-3-3-5-5/6-5~-----------------------------------------| G|---------------------------5-7~-7/9~-7\5-5~-4--------------------| D|-------------------------7--------------------7-5~---------------| A|-----------------------------------------------------------------| E|-----------------------------------------------------------------| e|-----------------------------------------------------------------| B|-8-8-6-5-3-3-3-5-5h6-5-------10\8-8\6-5-3-3/5--------------------| G|-9-9-7-5-4-4-4-5-5h7-5-5-7-9-10\9-9\7-5-4-4/5--------------------| D|-----------------------------------------------------------------| A|-----------------------------------------------------------------| E|-----------------------------------------------------------------| OR C G Am F G e|-----------------------------------------------------------------| B|-1-----1-----1---0-----0-----0---1-----1-----1---1-----1-0-----0-| G|-0---0-----0---0-0---0-----0---0-2---2-----2---2-2---2---0---0---| D|-2-2-----2-------0-0-----0-------2-2-----2-------3-3-----0-0-----| A|-3-------------------------------0-------------------------------| E|-----------------3---------------------------------------3-------| C G Am F G e|-----------------------------------------------------------------| B|-1-----1-----1---0-----0-----0---1-----1-----1---1-----1-0-----0-| G|-0---0-----0---0-0---0-----0---0-2---2-----2---2-2---2---0---0---| D|-2-2-----2-------0-0-----0-------2-2-----2-------3-3-----0-0-----| A|-3-------------------------------0-------------------------------| E|-----------------3---------------------------------------3-------| Pre-Chorus Chorus Outro: C G Am7 F G e|-------3-3-1-0-------------0-0h1-0---------------0---------------| B|---------------3-------3-3-------------1-1---3-------3-1-0-------| G|-----0---------------0-----------------0-0-----0-------0---2-0---| D|---2---------------0-----------------2-----2-------3---0---------| A|-3---------------------------------0-----------------------------| E|-----------------3-------------------------------------3---------| C G Am7 F G C e|-------3-3-1-0-------------0-0h1-0-------------0-1---0-----------| B|---------------3-------3-3-------------1-1---3---------3-1-0-1---| G|-----0---------------0-----------------0-0-------------0-----0---| D|---2---------------0-----------------2-----2-------3---0-----2---| A|-3---------------------------------0-------------------------3---| E|-----------------3-------------------------------------3---------| OR .

e|-3-3-1-0---------------------------------------------------------| B|---------3~-3-3-5-5/6-5~------5-5/6-5----------------------------| G|-------------------------5-7~---------7-5-4-5~-------------------| D|-----------------------------------------------------------------| A|-----------------------------------------------------------------| E|-----------------------------------------------------------------| | | | | | | | / \ h p ~ + x slide up slide down hammer-on pull-off vibrato harmonic Mute note .