You are on page 1of 4

Led Zeppelin - Whole lotta love

Tom: E
/: SLIDE
b: BEND
h-p : HAMER-ON , PULL OF
Riff 1 (principal)
E|---------------------------------------------------------------------|
B|---------------------------------------------------------------------|
G|--9------------------------------------------------------------------|
D|--9-------9-------9-------9-------9--------9------9-9--------------- |
A|--7-------7-------7-------7-------7--------7------7-7-------5b---5b--| (Os ben
ds sao de 1/4 tom)
E|----0-0-0---0-0-0---0-0-0---0-0-0---0-0-0----0-0--------5/7--- 7--- -|
P.M . . .

. . .

. . .

. . .

. . .

. .

Riff 2 (Refro)
E|-------------------------------------------|
B|-------------------------------------------|
G|--9--------------------------7-7-7---7--7--|
D|--9-------9-------9-------9--7-7-7---7--7--|
A|--7-------7-------7-------7--5-5-5---5--5--|
E|----0-0-0---0-0-0---0-0-0------------------|
Intro:

E|------------------------------|
B|------------------------------|
G|------------------------------|
D|----------------------------- |
A|---------------------5b---5b--|
E|-----------------5/7--- 7--- -|
Riff 1
E|---------------------------------------------------------------------|
B|---------------------------------------------------------------------|
G|--9------------------------------------------------------------------|
D|--9-------9-------9-------9-------9--------9------9-9--------------- |(2X)
A|--7-------7-------7-------7-------7--------7------7-7-------5b---5b--|
E|----0-0-0---0-0-0---0-0-0---0-0-0---0-0-0----0-0--------5/7--- 7--- -|
P.M . . .

. . .

(Riff 1)

. . .

You need cooling


Baby, I'm not fooling
I'm gonna send, yeah

. . .

. . .

. .

You back to schooling


(Riff 1)
Way down inside
Honey, you need it
I'm gonna give you my love
I'm gonna give you my love
Refro:
(Riff
Wanna
(riff
Wanna
(Riff
Wanna
(Riff
Wanna

2)
whole
2)
whole
2)
whole
2)
whole

lotta love
lotta love
lotta love
lotta love

(Riff 1)
You've been learning
Baby, I been learning
All that good times
Baby, baby, I've been yearning
(Riff 1)
Way, way down inside
Honey, you need it
I'm gonna give you my love
I'm gonna give you my love
Refro:
(Riff
Wanna
(riff
Wanna
(Riff
Wanna
(Riff
Wanna

2)
whole
2)
whole
2)
whole
2)
whole

lotta love
lotta love
lotta love
lotta love

Interlude:
------------------------Solo:
< O solo da msica baseado em frases,
a guitarra 1 toca a nota E5 duas vezes , em seguida
a guitarra 2 faz um solofrase, e assim por diante >
E5

E|-----------------------12----------------------------------|
B|--------------------12-----15h12---------------------------|
G|---(base)-----14b16---------------15p14p12--14--12--14b16--|
D|-----------------------------------------------------------|
A|-----------------------------------------------------------|
E|-----------------------------------------------------------|
E5
E|-------------------------------------------------------|
B|------------------3------------------------------------|
G|---(base)----2/4----4p2p0--2p0--0--2p0-----------------|
D|----------------------------------------2p0--2p0-------|
A|--------------------------------------------------2p0--|
E|-------------------------------------------------------|
E5
E|----------------------12----------------15----------|
B|-------------------12-----15b17--15b17-----15b17~~--|
G|---(base)----14b16----------------------------------|
D|----------------------------------------------------|
A|----------------------------------------------------|
E|----------------------------------------------------|
E5
E|------------------------------------------------|
B|-------------17--20--20b25r20--17----20p17~-----|
G|---(base)-------------------------18------------|
D|------------------------------------------------|
A|------------------------------------------------|
E|------------------------------------------------|
E5
E|-----------------19b21--19---18--17----------------|
B|-------------17---------------------20p17--20--17-~|
G|---(base)------------------------------------------|
D|---------------------------------------------------|
A|---------------------------------------------------|
E|---------------------------------------------------|

E|------------------------------------------19-----|
B|-------------17--19--19b21--19b21--19b22-----17~~|
G|---(base)----------------------------------------|
D|-------------------------------------------------|
A|-------------------------------------------------|
E|-------------------------------------------------|

Base do solo:
E|--------|------------------|
B|--------|------------------|
G|--9--9--|---(frasesolo)---|( 5x)
D|--9--9--|------------------|

A|--7--7--|------------------|
E|--------|------------------|

E|-----------------------------|
B|-----------------------------|
G|--9--9-----------------------|
D|--9--9-----------------------|
A|--7--7---------------5b---5b-|
E|-----------------5/7--- 7----|

(Verso, Riff 1)
(Refro,Riff2)
----------------- Acordes ----------------E5 = 0 2 2 X X X