You are on page 1of 11

Ben Howard - Video Games (Lana Del Rey cover)

Tuning is CFCGGC
C|------------------------------------------------------|
G|---------------------------------0--------------------|
G|--9----12----9----12----------0-----0-----------------|
C|---------------------------0-----------0--------------|
F|------------------------------------------------------|
C|--9----12----9----12----5-----------------------------|
C|------------------------------------------------------|
G|------------------------------------------------------|
G|------9----------12-----------9----------12-----------|
C|------------------------------------------------------|
F|------------------------------------------------------|
C|------9----------12-----------9----------12-----------|
swinging in the back yard, pull up in your fast car
C|------------------------------------------------------|
G|------------------------------------------------------|
G|------4------5----------------------------------------|
C|------------------------------------------------------|
F|------------------------------------------------------|
C|------4------5----------------------------------------|
whistling my name
C|------------------------------------------------------|
G|------------------------------------------------------|
G|------9----------12-----------9----------12-----------|
C|------------------------------------------------------|
F|------------------------------------------------------|
C|------9----------12-----------9----------12-----------|
say get over here,
and give me a beer
C|------------------------------------------------------|
G|------------------------------------------------------|
G|-------4------5---------------------------------------|
C|------------------------------------------------------|
F|------------------------------------------------------|
C|-------4------5---------------------------------------|
play a video game
C|------------------------------------------------------|
G|------------------------------------------------------|
G|------9-------------12------------9----------12-------|
C|------------------------------------------------------|
F|------------------------------------------------------|
C|------9-------------12------------9----------12-------|
shes in my favourite sun dress, watching me get undressed
C|------------------------------------------------------|
G|------------------------------------------------------|
G|--4--------------------5------------------------------|
C|------------------------------------------------------|
F|------------------------------------------------------|
C|--4--------------------5------------------------------|
take that body downtown honey

C|------------------------------------------------------|
G|------------------------------------------------------|
G|--------4----5----------------------------------------|
C|------------------------------------------------------|
F|------------------------------------------------------|
C|--------4----5----------------------------------------|
play a video game
C|------------------------------------------------------|
G|------------------------------------------------------|
G|------9-------------12------------9----------12-------|
C|------------------------------------------------------|
F|------------------------------------------------------|
C|------9-------------12------------9----------12-------|
oh I say you're the bestest, lean in for a big kiss
C|------------------------------------------------------|
G|------------------------------------------------------|
G|--4-----------------------5---------------------------|
C|------------------------------------------------------|
F|------------------------------------------------------|
C|--4-----------------------5---------------------------|
put your favourite perfume on..
C|------------------------------------------------------|
G|------------------------------------------------------|
G|---------0--------------------------------------------|
C|------4------------5----------------------------------|
F|------------------------------------------------------|
C|---4------------4--5----------------------------------|
C|------------------------------------------------------|
G|------------------------------------------------------|
G|------------------------------------------------------|
C|----------12------------------------------------------|
F|------------------------------------------------------|
C|----------12------------------------------------------|
and it's you, it's you, it's all for you
C|------------------------------------------0-----------|
G|------------------------------------------0-----------|
G|------------------------------------------0-----------|
C|------9--------7----------------------5---------------|
F|------------------------------------------------------|
C|------9--------7----------------------5---------------|
everything I do, I tell you all the time dear
C|-----------------0----------------0----------------0--|
G|----0--------0-------0--------0-------0--------0------|
G|--------0----------------0----------------0-----------|
C|------0--------0-------0--------0-------0--------0----|
F|----------11---------------11---------------11--------|
C|--0----------------0----------------0-----------------|
heaven
is
a
place
on
C|-----------------0-----------------0-----------------0|
G|----0--------0--------0--------0--------0--------0----|
G|--------0-----------------0-----------------0---------|
C|------0--------0--------0--------0--------0--------0--|
F|----------11----------------11----------------11------|
C|--0----------------11----------------11---------------|
earth
with you
tell me all the

C|------------------0-----------------0----------------0|
G|-----0--------0--------0--------0-------0--------0----|
G|---------0-----------------0----------------0---------|
C|-------0--------0--------0--------0-------0--------0--|
F|-----------11----------------11---------------11------|
C|--11----------------11----------------9---------------|
things
you want
to
do
C|-----------------0----------------0---------------0---|
G|----0--------0-------0--------0-------0-------0-------|
G|--------0----------------0----------------0-----------|
C|------0--------0-------0--------0-------0-------0-----|
F|----------11---------------11---------------9---------|
C|--9----------------9----------------7-----------------|
I heard that you like
the bad
guys
C|-----------------0---------------0---------------0----|
G|-----0-------0-------0-------0-------0-------0--------|
G|---------0---------------0---------------0------------|
C|-------0-------0-------0-------0-------0-------0------|
F|------------------------------------------------------|
C|---5-------5-------5-------5-------5-------5----------|
honey
is
that
C|-----------------0---------------0---------------0----|
G|-----0-------0-------0-------0-------0-------0--------|
G|---------0---------------0---------------0------------|
C|-------0-------0-------0-------0-------0-------0------|
F|------------------------------------------------------|
C|---5-------5-------5-------5-------5-------5----------|
true
it's better than
C|----------------0---------------0----------------0----|
G|----0-------0-------0-------0-------0--------0--------|
G|--------0---------------0---------------0-------------|
C|------0-------0-------0-------0-------0--------0------|
F|------------------------------------------11----------|
C|--5-------5-------5-------5-------0-------------------|
I ever
even
knew
C|-----------------0----------------0----------------0--|
G|----0--------0-------0--------0-------0--------0------|
G|--------0----------------0----------------0-----------|
C|------0--------0-------0--------0-------0--------0----|
F|----------11---------------11---------------11--------|
C|--0----------------0----------------0-----------------|
they say that the world
was built
for two
C|-----------------0-----------------0-----------------0|
G|----0--------0--------0--------0--------0--------0----|
G|--------0-----------------0-----------------0---------|
C|------0--------0--------0--------0--------0--------0--|
F|----------11----------------11----------------11------|
C|-11----------------11----------------11---------------|
only
worth living

C|-----------------0---------------0---------------0----|
G|----0--------0-------0-------0-------0-------0--------|
G|--------0----------------0---------------0------------|
C|------0--------0-------0-------0-------0-------0------|
F|----------11------------------------------------------|
C|--9----------------5-------5-------5-------5----------|
if
somebody
C|----------------0---------------0---------------0-----|
G|----0-------0-------0-------0-------0-------0---------|
G|--------0---------------0---------------0-------------|
C|------0-------0-------0-------0-------0-------0-------|
F|------------------------------------------------------|
C|--5-------5-------5-------5-------5-------5-----------|
is
loving
you
C|----------------0---------------0---------------0-----|
G|----0-------0-------0-------0-------0-------0---------|
G|--------0---------------0---------------0-------------|
C|------0-------0-------0-------0-------0-------0-------|
F|------------------------------------------------------|
C|--5-------5-------5-------5-------5-------5-----------|
baby
C|----------------0---------------0------------------0--|
G|----0-------0-------0-------0--------0---------0------|
G|--------0---------------9----------------12-----------|
C|------0-------0-------0-------0--------0---------0----|
F|------------------------------------------------------|
C|--5-------5-------9-------9-------12--------12--------|
now
you do
C|----------------0------------------0---------------0--|
G|----0-------0--------0---------0-------0-------0------|
G|--------9----------------12----------------0----------|
C|------0-------0--------0---------0-------0-------0----|
F|------------------------------------------------------|
C|--9-------9-------12--------12-------5-------5--------|
C|----------------0---------------0---------------0-----|
G|----0-------0-------0-------0-------0-------0---------|
G|--------0---------------0---------------0-------------|
C|------0-------0-------0-------0-------0-------0-------|
F|------------------------------------------------------|
C|--5-------5-------5-------5-------5-------5-----------|
C|----------------0------------------0---------------0--|
G|----0-------0--------0---------0-------0-------0------|
G|--------9----------------12----------------9----------|
C|------0-------0--------0---------0-------0-------0----|
F|------------------------------------------------------|
C|--9-------9-------12--------12-------9-------9--------|
C|-------------------0---------------0---------------0--|
G|-----0---------0-------0-------0-------0-------0------|
G|---------12----------------0---------------0----------|
C|-------0---------0-------4-------4-------4-------4----|
F|------------------------------------------------------|
C|--12--------12-------4-------4-------4-------4--------|

C|----------------0-------------------------------------|
G|----0-------0-------0-------0-------0-------0---------|
G|--------0---------------0-------0-------0-------0-----|
C|------5-------5-------5-------5-------5-------5-------|
F|------------------------------------------------------|
C|--5-------5-------5-------5-------5-------5-----------|
C|--------------------------------0-----------------0---|
G|----0-------0-------0-------0--------0--------0-------|
G|--------0-------0-------0----------------0------------|
C|------5-------5-------0-------0--------0--------0-----|
F|------------------------------------------------------|
C|--5-------5-------9-------9-------12-------12---------|
oh swinging in the old
bars
C|----------------0-----------------0---------------0---|
G|----0-------0--------0--------0-------0-------0-------|
G|--------0----------------0----------------0-----------|
C|------0-------0--------0--------0-------4-------4-----|
F|------------------------------------------------------|
C|--9-------9-------12-------12-------4-------4---------|
singing with the old
stars,
living for the
C|----------------0---------------0--------------0------|
G|----0-------0-------0-------0-------0------0----------|
G|--------0---------------0---------------0-------------|
C|------5-------5-------5-------5-------0------0--------|
F|------------------------------------------------------|
C|--5-------5-------5-------5-------9-------9-----------|
fame
kissing
in the
C|-----------------0---------------0-----------------0--|
G|-----0-------0-------0-------0--------0--------0------|
G|---------0---------------0----------------0-----------|
C|-------0-------0-------0-------0--------0--------0----|
F|------------------------------------------------------|
C|--12-------12------9-------9-------12-------12--------|
blue
dark
playing pool and wild
darts
C|----------------0---------------0---------------0-----|
G|----0-------0-------0-------0-------0-------0---------|
G|--------0---------------0---------------0-------------|
C|------4-------4-------5-------5-------5-------5-------|
F|------------------------------------------------------|
C|--4-------4-------5-------5-------5-------5-----------|
video
games
C|----------------0-----------------0---------------0---|
G|----0-------0--------0--------0-------0-------0-------|
G|--------0----------------0----------------0-----------|
C|------0-------0--------0--------0-------0-------0-----|
F|------------------------------------------------------|
C|--9-------9-------12-------12-------9-------9---------|
she holds me in her small
arms
drunk and now
C|------------------0-----------------------------------|
G|-----0--------0-------0-------0-------0-------0-------|
G|---------0----------------0-------0-------0-------0---|
C|-------0--------0-------4-------4-------5-------5-----|
F|------------------------------------------------------|
C|--12-------12-------4-------4-------5-------5---------|
seeing
stars
this is all I
think of

C|--------------------------------0-----------------0---|
G|----0-------0-------0-------0--------0--------0-------|
G|--------0-------0-------0----------------0------------|
C|------5-------5-------0-------0--------0--------0-----|
F|------------------------------------------------------|
C|--5-------5-------9-------9-------12-------12---------|
oh watching all our friends fall
C|----------------0-----------------0---------------0---|
G|----0-------0--------0--------0-------0-------0-------|
G|--------0----------------0----------------0-----------|
C|------0-------0--------0--------0-------4-------4-----|
F|------------------------------------------------------|
C|--9-------9-------12-------12-------4-------4---------|
in and out
of old
Pauls
this is my
C|----------------0---------------0---------------0-----|
G|----0-------0-------0-------0-------0-------0---------|
G|--------0---------------0---------------0-------------|
C|------4-------4-------5-------5-------5-------5-------|
F|------------------------------------------------------|
C|--4-------4-------5-------5-------5-------5-----------|
idea
of
fun
playing
C|--------------------------------0--------------0------|
G|----0-------0-------0-------0------0-------0----------|
G|--------0-------0-------0--------------0--------------|
C|------4-------4-------5-------5------5-------5--------|
F|------------------------------------------------------|
C|--4-------4-------5-------5-------5------5------------|
video
games
C|----------------0-------------------------------------|
G|----0-------0-------0-------0-------0-------0---------|
G|--------0---------------0-------0-------0-------0-----|
C|------4-------4-------4-------4-------5-------5-------|
F|------------------------------------------------------|
C|--4-------4-------4-------4-------5-------5-----------|
C|---------------------------------0----------------0---|
G|----0-------0-------0--------0-------0--------0-------|
G|--------0-------0-------0----------------0------------|
C|------5-------5-------0--------0-------0--------0-----|
F|--------------------------11---------------11---------|
C|--5-------5-------0----------------0------------------|
its you
its you
its
C|-----------------0----------------0----------------0--|
G|----0--------0-------0--------0-------0--------0------|
G|--------0----------------0----------------0-----------|
C|------0--------0-------0--------0-------0--------0----|
F|----------11---------------11---------------11--------|
C|--0----------------0----------------9-----------------|
all
for you
every
C|-----------------0---------------0---------------0----|
G|----0--------0-------0-------0-------0-------0--------|
G|--------0----------------0---------------0------------|
C|------0--------0-------0-------0-------0-------0------|
F|----------11---------------9---------------9----------|
C|--9----------------7---------------7------------------|
thing
I do
I tell you all the

C|----------------0---------------0---------------0-----|
G|----0-------0-------0-------0-------0-------0---------|
G|--------0---------------0---------------0-------------|
C|------0-------0-------0-------0-------0-------0-------|
F|------------------------------------------------------|
C|--5-------5-------5-------5-------5-------5-----------|
time
dear
C|----------------0----------------0----------------0---|
G|----0-------0-------0--------0-------0--------0-------|
G|--------0---------------0----------------0------------|
C|------0-------0-------0--------0-------0--------0-----|
F|--------------------------11---------------11---------|
C|--5-------5-------0----------------0------------------|
heaven
is
a
C|-----------------0----------------0-----------------0-|
G|----0--------0-------0--------0--------0--------0-----|
G|--------0----------------0-----------------0----------|
C|------0--------0-------0--------0--------0--------0---|
F|----------11---------------11----------------11-------|
C|--0----------------0----------------11----------------|
place
on
earth
with you,
C|-----------------0-----------------0-----------------0|
G|----0--------0--------0--------0--------0--------0----|
G|--------0-----------------0-----------------0---------|
C|------0--------0--------0--------0--------0--------0--|
F|----------11----------------11----------------11------|
C|-11----------------11----------------11---------------|
tell me all the things
you
wanna
do
C|-----------------0----------------0----------------0--|
G|----0--------0-------0--------0-------0--------0------|
G|--------0----------------0----------------0-----------|
C|------0--------0-------0--------0-------0--------0----|
F|----------11---------------11---------------11--------|
C|--9----------------9----------------9-----------------|
I heard that you like
the bad
C|--------------------------------0---------------0-----|
G|----0-------0-------0-------0-------0-------0---------|
G|--------0-------0-------0---------------0-------------|
C|------0-------0-------0-------0-------0-------0-------|
F|------------------------------------------------------|
C|--9-------7-------5-------5-------5-------5-----------|
guys
honey
C|----------------0---------------0---------------0-----|
G|----0-------0-------0-------0-------0-------0---------|
G|--------0---------------0---------------0-------------|
C|------0-------0-------0-------0-------0-------0-------|
F|------------------------------------------------------|
C|--5-------5-------5-------5-------5-------5-----------|
is
that
true

C|----------------0---------------0---------------0-----|
G|----0-------0-------0-------0-------0-------0---------|
G|--------0---------------0---------------0-------------|
C|------0-------0-------0-------0-------0-------0-------|
F|------------------------------------------------------|
C|--5-------5-------5-------5-------5-------5-----------|
its better than I ever
even
knew
C|-----------------0-----------------0-----------------0|
G|---0--------0--------0--------0--------0--------0-----|
G|--------0-----------------0-----------------0---------|
C|-----12-------12-------12-------12-------12-------12--|
F|------------------------------------------------------|
C|-0--------0--------0--------0--------0--------0-------|
they say that the world
was
C|------------------0-------------------0---------------|
G|----0--------0---------0---------0---------0----------|
G|---------0------------------0-------------------0-----|
C|------12-------12--------12--------12--------12-------|
F|------------------------------11----------------------|
C|--0--------0--------11------------------11------------|
built
for two
only
C|----------0-------------------0-----------------------|
G|-----0---------0---------0--------0-------0-----------|
G|--------------------0-----------------0-------0-------|
C|-------12--------12--------12-------0-------0---------|
F|--11------------------11------------------------------|
C|------------11------------------9-------7-------------|
worth living
if
some
C|----------------0---------------0---------------0-----|
G|----0-------0-------0-------0-------0-------0---------|
G|--------0---------------0---------------0-------------|
C|------0-------0-------0-------0-------0-------0-------|
F|------------------------------------------------------|
C|--5-------5-------5-------5-------5-------5-----------|
body
is
C|----------------0---------------0---------------0-----|
G|----0-------0-------0-------0-------0-------0---------|
G|--------0---------------0---------------0-------------|
C|------0-------0-------0-------0-------0-------0-------|
F|------------------------------------------------------|
C|--5-------5-------5-------5-------5-------5-----------|
loving
you
C|----------------0---------------0---------------0-----|
G|----0-------0-------0-------0-------0-------0---------|
G|--------0---------------0---------------0-------------|
C|------0-------0-------0-------0-------0-------0-------|
F|------------------------------------------------------|
C|--5-------5-------5-------5-------5-------5-----------|
baby now

C|----------------0--------------0----------------0-----|
G|----0-------0--------------9---------------12---------|
G|--------0--------------0--------------0---------------|
C|------0-------0------0-------0------0---------0-------|
F|------------------------------------------------------|
C|--5-------5-------9------9-------12-----12------------|
you do
C|----------------0-------------------0---------------0-|
G|----9-------9--------12--------12-------9-------9-----|
G|--------0-----------------0-----------------0---------|
C|------0-------0---------0---------0-------0-------0---|
F|------------------------------------------------------|
C|--9-------9-------12--------12--------9-------9-------|
C|--------------------0---------------0---------------0-|
G|-----12--------12-------0-------0-------0-------0-----|
G|----------0-----------------0---------------0---------|
C|--------0---------0-------0-------0-------0-------0---|
F|------------------------------------------------------|
C|--12--------12--------5-------5-------5-------5-------|
C|----------------0---------------0---------------0-----|
G|----0-------0-------0-------0-------0-------0---------|
G|--------0---------------0---------------9-------------|
C|------0-------0-------0-------0-------0-------0-------|
F|------------------------------------------------------|
C|--5-------5-------5-------5-------9-------9-----------|
now
you do
C|-----------------0---------------0------------------0-|
G|---0---------0-------0-------0--------0---------0-----|
G|-------12----------------9----------------12----------|
C|-----0---------0-------0-------0--------0---------0---|
F|------------------------------------------------------|
C|12--------12-------9-------9-------12--------12-------|
now
you do
C|----------------0-------------------------------------|
G|----0-------0-------0-------0-------0-------0---------|
G|--------0---------------0-------0-------0-------0-----|
C|------0-------0-------0-------0-------0-------0-------|
F|------------------------------------------------------|
C|--5-------5-------5-------5-------5-------5-----------|
C|--------------------------------0---------------0-----|
G|----0-------0-------0-------0-------0-------0---------|
G|--------0-------0-------0---------------0-------------|
C|------0-------0-------0-------0-------0-------0-------|
F|------------------------------------------------------|
C|--5-------5-------0-------0-------0-------0-----------|
now
you do
C|----------------0---------------0---------------------|
G|----0-------0-------0-------0-------0---------0-------|
G|--------0---------------0----------------0---------0--|
C|------0-------0-------0-------0-------16--------16----|
F|-------------------------------------------14---------|
C|--0-------0-------0-------0-------0-------------------|

C|------------------------------------------------------|
G|----0---------0--------0---------0--------0-----------|
G|---------0---------0--------0---------0--------0------|
C|------14--------14-------12--------12-------11--------|
F|-----------12-----------------11----------------------|
C|--0------------------0------------------0-------------|
C|-------------------------0---------------0------------|
G|----0--------0-------0-------0-------0-------0--------|
G|---------0-------0---------------0---------------0----|
C|------11-------0-------0-------0-------0-------0------|
F|--9---------------------------------------------------|
C|-----------5-------5-------5-------5-------5----------|
C|--------0---------------0-----------------------------|
G|----0-------0-------0-------0---------0--------0------|
G|----------------0----------------0---------0--------0-|
C|------0-------0-------0-------16--------16-------14---|
F|-----------------------------------14-----------------|
C|--5-------5-------5-------0------------------0--------|
baby
now
you do
C|------------------------------------------------------|
G|-----0--------0---------0--------0--------0-----------|
G|----------0--------0---------0--------0--------0------|
C|-------14-------12--------12-------11-------11--------|
F|--12-----------------11-----------------9-------------|
C|------------0------------------0----------------------|
C|----------------0---------------0---------------0-----|
G|----0-------0-------0-------0-------0-------0---------|
G|--------0---------------0---------------0-------------|
C|------0-------0-------0-------0-------0-------0-------|
F|------------------------------------------------------|
C|--5-------5-------5-------5-------5-------5-----------|
C|----------------0-------------------------------------|
G|----0-------0-------0---------0--------0---------0----|
G|--------0----------------0---------0--------0---------|
C|------0-------0-------16--------16-------14-----------|
F|---------------------------14-----------------12------|
C|--5-------5-------0------------------0----------------|
C|------------------------------------------------------|
G|---------0---------0--------0--------0--------0-------|
G|-----0--------0---------0--------0--------0-------0---|
C|--14-------12--------12-------11-------11-------0-----|
F|----------------11-----------------9------------------|
C|-------0------------------0-----------------5---------|
C|--------0---------------0---------------0-------------|
G|----0-------0-------0-------0-------0-------0---------|
G|----------------0---------------0---------------0-----|
C|------0-------0-------0-------0-------0-------0-------|
F|------------------------------------------------------|
C|--5-------5-------5-------5-------5-------5-----------|

C|--------0---------------------------------------------|
G|----0-------0---------0--------0---------0------------|
G|-----------------0---------0--------0---------0-------|
C|------0-------16--------16-------14--------14---------|
F|-------------------14-----------------12--------------|
C|--5-------0------------------0------------------------|
C|------------------------------------------------------|
G|-----0---------0--------0--------0--------------------|
G|----------0---------0--------0--------0---0-----------|
C|-------12--------12-------11-------11-----0------0----|
F|--11--------11--------9--------9----------0----11-----|
C|------------------------------------------5---0-------|