You are on page 1of 86

2002 GR - ...........................................................................

3
Charms - .........................................................................................4
Magic de Spell - ..........................................................................5
Olympians - ..................................................................................................6
Olympians - ..............................................................................7
Thirty dirty - ...............................................................................8
- ....................................................................................9
- ...............................................................10
- ...................................................................................11
- .........................................................................12
- rock'n'roll.....................................................13
- ..........15
- ' ......................................................................16
- ..........................................................17
- ................................................................................18
- ......................................................................21
- ' ........................................................................................23
- ' ........................................................................................24
- ...........................................................................26
- ................................................................27
- ...................................................................28
- ........................................................................................31
- ..................................................................................32
- ..................................................................................33
- .................................................................................34
- ..........................................................................................35
Magic de Spell - ........................................................................36
- ..................................................................37
- ............................................................................38
- ..........................................................................................39
- ...................................................................................40
- ........................................................................................41
- ..............................................................................................44
- ..................................................................46
- ....................................................................................48
- ................................................................................................49
- .............................................................................................50
- ...........................................................................................51
- ...........................................................................53
- ..........................................................................54
- ........................................................................................55
- .......................................................................................56
- .......................................................................................57
- ..................................................................................58
- ..................................................................................59
- .........................................................................60
- .................................................................61
- ..............................................................62
- Bob Dylan..................................................63
- , ...............................64

- .......................................................65
- .........................................................66
- .....................................................................67
- .................................................................68
- ...............................................................69
- .........................................................70
- ....................................................................................71
- .........................................................74
- .................................................75
- ........................................................76
- ....................................................................77
- Rock n roll .................................................78
- ' .....................................................................81
- ..............................................................82
- 69.................................................................................83
- ................................................................................84

2002 GR -
/: 2002 GR

:
: 24-03-2001

[ ; .
sites
: , ! ,
, .
, .]

Am
G
Am

G
Dm

F
Am

G

Am
, ,




, ,



A
D

A
D
G
,
D
G
Dm
Am
, ,
C
G
Am

C
G
D

F
E

Charms -
/: Chiprut/

:
: 21-06-1998

[ ; .
sites
: , ! ,
, .
, .]

G
Am
E
D
G

A

G
D
T,
G
,
G
D
,
G D

M



T...
T...
M ...
T...

Magic de Spell -
: 2
: 03-08-2000

[ ; .
sites
: , ! ,
, .
, .]

Em
G
D
Bm
Em

G
D
Bm
Em

Em
E

, , ,
,




...


, , ,


,
,

,
, , !
...
,





,

,
....

"Solo" ( " "):


e|-7----8-10-12-8--7----8-10-12-10-12-14-12

( )

Olympians - .
/: Hays/

:
: 21-06-1998

[ ; .
sites
: , ! ,
, .
, .]

Cm

Fm
Cm

Cm

Fm
G
Cm

Cm#...




Dm...

Dm#...




Em...




Fm...




Fm...
...

Olympians - .
/: Van Leeuwen/T

:
: 21-06-1998

[ ; .
sites
: , ! ,
, .
, .]

4
Em
A
Em A




Am DAm
D
Em A
,
C
B
Em
A Em

] 2x




...
, , , ...
...

Thirty dirty -
:
: 02-08-2000

[ ; .
sites
: , ! ,
, .
, .]

Em
,
G
A

Em

G
A
!

, ,
, ,

D-----2-2-2?2-2----9-9-9
A-----2-2-2?2-2----9-9-9
E-----0-0-0?0-0----7-7-7
, ,
G
E
A/Am

E
Am

G
E
!
,

,



, ,

,


-
:
: 09-07-2001

/:

[ ; .
sites
: , ! ,
, .
, .]

Am
C

Dm
Am
'
C

Dm
Am

| 2x
| 2x

Am
C

Dm
Am

C
,
Dm
Am

| 2x
| 2x


( )
' '
| 2x
,
| 2x





(82. 1992)

-
/:

Em
B
Em

Em
B
Em

Em
B Em

B Em B
Em

Em
Am
B

B
Em






















:
: 21-06-1998

- .
/:

:
: 21-06-1998

Cm
A#
Cm

Cm
A#
Cm

D#
A#

D#
A#
Cm
,
D#
A#

D#
A#
Cm
,
Cm
A#
Fm CmA#
Cm
,
Cm
A#
FmCm A#
Cm
-
A#
FmCmA#
Fm Cm
-
A#
FmCmA#
Fm Cm
-
Fm CmA# Cm Fm Cm A#Cm Fm Cm A# CmFmCm A# Cm
,
Cm
D#
A#

D#
A#
Cm

Cm
D#
A#

D#
A#
Cm




,

,
,



, ,
...

-
/:

:
: 06-07-2000

[ ; .
sites
: , ! ,
, .
, .]

Am
Dm
G
Am
, '
16,
, '
' , , '
Dm

Am
G
Am
,
,

'
,
, ,
, , ';

, '
, ' '

, , '
' '
,
, , '
' ;
,
,
One more time...

...

- rock'n'roll
/:

:
: 06-07-2000

[ ; .
sites
: , ! ,
, .
, .]

E

C#m
'
A
B B C
, ...
C#m

A

E
B
E
...

,
, ...


...
C#m
A
Rock ' Roll...
C#m
E
Rock ' Roll...
C#m
A
B
C
...
C#m
A
, Rock ' Roll...
C#m
E
, Rock ' Roll...
C#m
A
B
E
...
'

...

'
...

'
, .


...
Rock ' Roll...
Rock ' Roll...
...
, Rock ' Roll...
, Rock ' Roll...
...
studio

...
A '

...
Rock ' Roll...
Rock ' Roll...
...
, Rock ' Roll...
, Rock ' Roll...
...

-
.
:
: 08-10-2000

A
F#m

G#A

F#m

D
,
F#m

F
D

F#m
,
F
Em

F
'
G

F

G

G

Am
F

G

Am
F

| 2x
| 2x
| 2x
| 2x

A...



'
A...
, ,

'

D...

,
,

' ...
' ...
D

Dm

' ...
...

G Am F Dm G
...

- '
: -
: 13-09-2002

[ ; .
sites
: , ! ,
, .
, .]

Dm
A

Dm
C
A

F
Dm

C
Gm A

Dm
A

Dm
C
A

F
Dm
'
C
Gm A

Dm
G
Em
A
' '
Dm
G
A
'
Dm
G
Em
A

Bb
A
'
'
'


'




' ...






' ...

-
/: /

C Em
Dm Am

Am
G

G
G

C

Em

Am

G

Dm
'
Am

G
'

C Em
Dm Am

Am
G

G
G



'
'



'

'
'



'

C
Em

Dm Am G

Am G
] 2x

: George
: 21-08-2001

-
: O
: 27-03-2002

[ ; .
sites
: , ! ,
, .
, .]

1 :
--------------------------------------------------------------------------10---11--10h11p10--8----10-----------9----------------8--10----------(10)---------------------10-----------9----------9--10---------9--10--------------------------(12)---------(9)------------------------------------------------------------------------------------------------------------------------------------------------------------------------------------------------------10------------------10-----------------(12)------------------------------------------------------------------------------------------------------------------------------------10---11--10h11p10--8----10-----------9----------------8--10----------(10)---------------------10-----------9----------9--10---------9--10--------------------------(12)---------(9)------------------------------------------------------------------------------------------------------------------------------------------------------------------------------------------------------10------------------10-----------------(12)------------------------------------------------------------------------------------------------------------------------------------10---11--10h11p10--8----10-----------9------------10-----------------(10)---------------------10-----------9------------10-----------------------------------------(12)---------(9)----------(12)-----------------------------------------------------------------------------------------------------------------------------------------------------------------------------------------------------------------------------------------10---11--10h11p10--8----10-----------9------------10-----------------(10)---------------------10-----------9------------10-----------------------------------------(12)---------(9)----------(12)--------------------------------------------------------------------------------------------------------------------------------------------------------------- ,
--------------------------------------------------------------------------10---11--10h11p10--8----10-----------9------------10-----------------(10)---------------------10-----------9------------10-----------------------------------------(12)---------(9)----------(12)---------------------------------------------------------------------------------------------------------------------------------------------------------------
-------------------------------------------------------------------------------8--10------------10---------------11---------------10-----------9--10---------9--10----10---------------10---------------10---------------------------------(12)-------------(12)-------------(12)----------------------------------------------------------------------------------------------------------------------------------------------------------


--------------------------------------------------------------------------10---11--10h11p10--8----10-----------9------------10-----------------(10)---------------------10-----------9------------10-----------------------------------------(12)---------(9)----------(12)---------------------------------------------------------------------------------------------------------------------------------------------------------------
-------------------------------------------------------------------------------8--10------------10---------------11---------------13-----------9--10---------9--10----10---------------10---------------12---------------------------------(12)-------------(12)-------------(14)----------------------------------------------------------------------------------------------------------------------------------------------------------

:
2 :

-----------------------------------------------------------------------------------------------------------------10-10-10h11p10--8--------------------------5-(5)(5)(5)--7-(7)(7)(7)(7)-------------------------------3-(3)(3)(3)--5-(5)(5)(5)--7-(7)(7)(7)(7)-------------------------------3-(3)(3)(3)--3-(3)(3)(3)--5-(5)(5)(5)(5)-------------------------------1-(1)(1)(1)-----------------------------------------------------------
-----------------------------------------------------------------------------------------------------------------10-10-10h11p10--8--------------------------5-(5)(5)(5)--7-(7)(7)(7)(7)-------------------------------3-(3)(3)(3)--5-(5)(5)(5)--7-(7)(7)(7)(7)-------------------------------3-(3)(3)(3)--3-(3)(3)(3)--5-(5)(5)(5)(5)-------------------------------1-(1)(1)(1)-----------------------------------------------------------
-----------------------------------------------------------------------------------------------------------------10-10-10h11p10--8--------------------------5-(5)(5)(5)--7-(7)(7)(7)(7)-------------------------------3-(3)(3)(3)--5-(5)(5)(5)--7-(7)(7)(7)(7)-------------------------------3-(3)(3)(3)--3-(3)(3)(3)--5-(5)(5)(5)(5)-------------------------------1-(1)(1)(1)-----------------------------------------------------------
-----------------------------------------------------------------------------------------------------------------10-10-10h11p10--8--------------------------5-(5)(5)(5)--7-(7)(7)(7)(7)-------------------------------3-(3)(3)(3)--5-(5)(5)(5)--7-(7)(7)(7)(7)-------------------------------3-(3)(3)(3)--3-(3)(3)(3)--5-(5)(5)(5)(5)-------------------------------1-(1)(1)(1)------------------------------------------------------------

1 :
--------------------------------------------------------------------------(10)--------9----------------8--10------------10----------------------(10)--------9----------9--10---------9--10----10----------------------(12)-------(9)-------------------------------(12)---------------------------------------------------------------------------------------------------------------------------------------------------------------------------------------------------------------------------------------------10---11--10h11p10--8----10-----------9----------------8--10----------(10)---------------------10-----------9----------9--10---------9--10--------------------------(12)---------(9)------------------------------------------------------------------------------------------------------------------------------------------------------------------------------------------------------10------------------10-----------------(12)--------------------------------------

--------------------- ,
--------------------------------------------------------------------------10---11--10h11p10--8----10-----------9------------10-----------------(10)---------------------10-----------9------------10-----------------------------------------(12)---------(9)----------(12)---------------------------------------------------------------------------------------------------------------------------------------------------------------
-------------------------------------------------------------------------------8--10------------10---------------11---------------10-----------9--10---------9--10----10---------------10---------------10---------------------------------(12)-------------(12)-------------(12)--------------------------------------------------------------------------------------------------------------------------------------------------------- ,
--------------------------------------------------------------------------10---11--10h11p10--8----10-----------9------------10-----------------(10)---------------------10-----------9------------10-----------------------------------------(12)---------(9)----------(12)--------------------------------------------------------------------------------------------------------------------------------------------------------------- ,
-------------------------------------------------------------------------------8--10------------10---------------11---------------13-----------9--10---------9--10----10---------------10---------------12---------------------------------(12)-------------(12)-------------(14)----------------------------------------------------------------------------------------------------------------------------------------------------------

:


'

-
:
: 31-10-2000

[ ; .
sites
: , ! ,
, .
, .]

Guitar 1 ( ):
E||----------------------|--3-------------------|-----------------3----|
B||--5----5----5----5----|-------5----5----5----|--5----5----5---------|
G||----------------------|----------------------|----------------------|
D||----------------------|----------------------|----------------------|
A||----------------------|----------------------|----------------------|
E||----------------------|----------------------|----------------------|
----------------------|-------5--------------|----------------------|
--5----6----6----6----|--6---------6----6----|--6----6----6----6----|
----------------------|----------------------|----------------------|
----------------------|----------------------|----------------------|
----------------------|----------------------|----------------------|
----------------------|----------------------|----------------------|
--5---------12----8----|--0----1----||
-------6---------------|------------||
-----------------------|------------||
-----------------------|------------||
-----------------------|------------||
-----------------------|------------||

] 2x

Guitar 1 ( ... Solo...)


E||--12----8----8----8----|--8----8----12----8----|--8----8----8----8----|
B||-----------------------|-----------------------|----------------------|
G||-----------------------|-----------------------|----------------------|
D||-----------------------|-----------------------|----------------------|
A||-----------------------|-----------------------|----------------------|
E||-----------------------|-----------------------|----------------------|
--12----8----|--13----8----8----8----|--8----8----13----8----|
-------------|-----------------------|-----------------------|
-------------|-----------------------|-----------------------|
-------------|-----------------------|-----------------------|
-------------|-----------------------|-----------------------|
-------------|-----------------------|-----------------------|
--8----8----8----8----|--13----8----|--8----7----5----3----|
----------------------|-------------|----------------------|
----------------------|-------------|----------------------|
----------------------|-------------|----------------------|
----------------------|-------------|----------------------|
----------------------|-------------|----------------------|
--1----0----1----0----|-----------------0----|--0----3----1----||
----------------------|--3----1----0---------|-----------------||
----------------------|----------------------|-----------------||
----------------------|----------------------|-----------------||
----------------------|----------------------|-----------------||
----------------------|----------------------|-----------------||

( ,
0---3---1)

'

, ,
'
'

, ,

'

, ,


, ,

,
,
,
,



, ,


, ,

,
,
,
,

,
,
,
,

,
,
,
,

... .(
;-)

- '
/: /

:
: 29-05-2002

[ ; .
sites
: , ! ,
, .
, .]

Capo 1st fret


Bm
Em

A
Bm
' , '
Bm
Em

A
Bm

Em
A
'
D
Bm
'
Em
A

D
Bm

Em
A
'
D
Bm
'
Em
A

D
D

,



'
'


Em
A
Bm
'
Em
A
Bm
'
Em
A
D
Bm

Em
A
F#
'
Em
A
' ...

- '
: sakism
: 26-02-2003

/:

[ ; .
sites
: , ! ,
, .
, .]

* site
.
1
Cm
Fm
A#(Bb)
Cm
---3---------------------------1----------------------1----------------------------3-----------------------------4---------------------------1----------------------3----------------------------4-----------------------------5---------------------------1----------------------3----------------------------5-----------------------------5---------------------------3----------------------3----------------------------5-----------------------------3---------------------------3----------------------1----------------------------3-----------------------------3---------------------------1----------------------1----------------------------3--------------------------
' , '
Cm
Fm
A#(Bb)
Cm
---3---------------------------1----------------------1----------------------------3-----------------------------4---------------------------1----------------------3----------------------------4-----------------------------5---------------------------1----------------------3----------------------------5-----------------------------5---------------------------3----------------------3----------------------------5-----------------------------3---------------------------3----------------------1----------------------------3-----------------------------3---------------------------1----------------------1----------------------------3--------------------------

Refrain
Cm
Fm
A#(Bb)
Eb
Cm
Fm
Bb
Eb
---3---------1---------------1-----------------3-----------------3----------------1--------1-------3----------|
---4---------1---------------3-----------------4-----------------4----------------1--------3-------4----------|
---5---------1---------------3-----------------3-----------------5----------------1--------3-------3----------|
---5---------3---------------3-----------------1-----------------5----------------3--------3-------1----------|
---3---------3---------------1-----------------x-----------------3----------------3--------1-------x----------|
---3---------1---------------1-----------------x-----------------3----------------1--------1-------x----------|
' , ...

Cm
|
--------------3-----------------------------------------------------------------------------------------------|
--------------4-----------------------------------------------------------------------------------------------|
--------------5-----------------------------------------------------------------------------------------------|
--------------5-----------------------------------------------------------------------------------------------|
--------------3-----------------------------------------------------------------------------------------------|
--------------3-----------------------------------------------------------------------------------------------|

2
Refrain
3
G#
Bb
Cm
G#
Bb
Cm
Fm
Bb
Eb
--------4--------------1--------3---------------4------------1------------3----------1----------1-----------3---------4--------------3--------4---------------4------------3------------4----------1----------3-----------4---------5--------------3--------5---------------5------------3------------5----------1----------3-----------3---------6--------------3--------5---------------6------------3------------5----------3----------3-----------1---------6--------------1--------3---------------6------------1------------3----------3----------1-----------x---------4--------------1--------3---------------4------------1------------3----------1----------1-----------x-' . ' . ,

Cm
G#
Bb
G
------3-----------4-------------1--------3--------------------------------------------------------------------------4-----------4-------------3--------3--------------------------------------------------------------------------5-----------5-------------3--------0--------------------------------------------------------------------------5-----------6-------------3--------0--------------------------------------------------------------------------3-----------6-------------1--------2--------------------------------------------------------------------------3-----------4-------------1--------3-------------------------------------------------------------------- , ' ...

Refrain
Solo (Guitar / Piano) Refrain
d#
g#
a#
g
--11--------------------------------------------------------------------------------------------------------------------9---------------11-------8-----------------------------------------------------------------------------------------------------------------------------------------------------------------------------------------------------------------------------------------------------------------------------------------------------------------------------------------------------------------------------------------------------------------------------------------------------------------------------------------------------------------------------------

-
/: /

:
: 02-08-2000

[ ; .
sites
: , ! ,
, .
, .]

Em
Em
Em

Em,C,B
Em,C,B
Em

Em

Am
C
,
D
Em
Em,C,B

Em
Am
C

D
Em C,Bm

Am

G
C
F Em
'
Am
D

G
C
F Em
'
F
Am

C,Bm



'

...




...

-
/: /

:
: 02-08-2000

[ ; .
sites
: , ! ,
, .
, .]

Em
Em

Em
Em

Bm

Em

Em

Bm

Em

D

Em

Bm

Em

'

D

Em
'
Em
Bm
D
,
Am
D
G
'
C
G
Am C
'
D
G

C
G
Am
'
Em Em D Bm Em Em D Bm


'
'
' ...

-
/: /

:
: 02-08-2000

[ ; .
sites
: , ! ,
, .
, .]

Em

D
'
C
Bm
'
Em
D

C
Bm

Am

Bm
Em

C
Am
Bm
C

Am
Bm
C

Em
Am
Bm
C
'
Am
D7
G
C
,
Am
B7
Em

Am
D7
G
C

Am
B7
Em








'
...

B7



/: /

:
: 02-08-2000

F
G
Am
E||-------------|----------------|--------------|--------|
B||-1---1p0-----|-0--------0-----|--1--0--------|--------|
G||----------2--|-------2-----2--|--------2-----|--2-----|
D||-------------|----------------|-----------2--|--------|
A||-------------|----------------|--------------|--------|
E||-------------|----------------|--------------|--------|
F
G
Am
|-------------|-----------------|------0----|------------|
|--1--1p0-----|-0---------0-----|--1--------|------------|
|----------2--|--------2-----2--|-----------|------------|
|-------------|-----------------|-----------|------------|
|-------------|-----------------|-----------|------------|
|-------------|-----------------|-----------|------------|
F
G
Am
|-------------|----------------|--------------|--------|
|-1---1p0-----|-0--------0-----|--1--0--------|--------|
|----------2--|-------2-----2--|--------2-----|--2-----|
|-------------|----------------|-----------2--|--------|
|-------------|----------------|--------------|--------|
|-------------|----------------|--------------|--------|
F
G
Am
|-------------|----------------|--------------|----------------||
|--1--1p0-----|-0--------0-----|-1----1--0----|----------------||
|----------2--|-------2-----2--|--------------|--2-------------||
|-------------|----------------|--------------|---------0--2---||
|-------------|----------------|--------------|------3---------||
|-------------|----------------|--------------|----------------||
F
G
Am




a b c
Dm
G
F
'
Dm
G
Am

Dm
G
F

Dm
G
Am



'

...




...

/: /

:
: 21-06-1998

[ ; .
sites
: , ! ,
, .
, .]

A
Bm

D
E
A


,




D
E
A

D
E
A

F#
Bm

B
B7
E





...




...

-
/: /

:
: 21-06-1998

[ ; .
sites
: , ! ,
, .
, .]

D
Em

Em
A
D

,

D G D A D
...




...

, ,


...

-
/:

: pityian
: 27-08-2002

[ ; .
sites
: , ! ,
, .
, .]

A
E7
A
'
' '
F#m
E
A E

A
E
A
'
E
A
' ...
E
A
' ...
E
A E
' ...

'

'
' ....
' ...
' ...
'
'

'
' ...
' ...
' .. !

-
/: /

:
: 21-06-1998

[ ; .
sites
: , ! ,
, .
, .]

Dm
D#
,
Cm
Dm

Dm
D#
,
Dm Cm
DmDmC
M
F
G
Em
F
,
Dm
G
C

F
G
Em
F
,
Dm
G
C
,
Dm
D#
,
Dm Cm
Dm

,


,
...

-
/: /

:
: 21-06-1998

[ ; .
sites
: , ! ,
, .
, .]

D
G

G
D
A
D

,








-,

| 2x
| 2x

-
/: /

: .
: 14-08-2002

[ ; .
sites
: , ! ,
, .
, .]

Am
Dm
Am
'
G
F
C
.
Dm
Am
G
Am
,
G
Am
C
.
Am
Dm
,
Am

G

Dm

Am
G Am
.

Magic de Spell -
: 2
: 03-08-2000

[ ; .
sites
: , ! ,
, .
, .]

Em
G
D
Bm
Em

G
D
Bm
Em

Em
E

, , ,
,




...


, , ,


,
,

,
, , !
...
,





,

,
....

"Solo" ( " "):


e|-7----8-10-12-8--7----8-10-12-10-12-14-12

( )

-
/:

:
: 25-05-2001

[ ; .
sites
: , ! ,
, .
, .]

D
' -
A7

(A7)
,
D

Em
D
'
Em
G
D

Em
D
'
G
A
D


'

'
'

'



,
, ,

-
/: Kaye/

:
: 21-06-1998

[ ; .
sites
: , ! ,
, .
, .]

A F#mD E
...
A
F#m
,
D
E

,
,
A
D
A

(-, -, )
A
D
E

,

...

] 2x

,



...


,
,
...

- .
/:

:
: 21-06-1998

[ ; .
sites
: , ! ,
, .
, .]

F#
Bm
F#
Bm

D
G
A
D
M ,
Em
Bm
F#
Bm

Em
Bm
F#
Bm





Bm
A
,
F#
Bm
A
D
,
Em
Bm
F#
Bm

Em
Bm
F#
Bm




, ,
K ,

, ,
,
, ...

-
/: /

:
: 07-08-2000

Intro:
E--------------------------------------------------B--------------------------------------------------G--------------------------------------------------D--------------------------------------------------A------------------3-------------------------3-----E--0--0--3--5--5-------5--5--5--0--3--5--5-------5--

Verse:
E----------------------------------------------B----------------------------------------------G----------------------------------------------D----------------------------------------------A--------3------------------------3------------E--5--5-----5--5--5--0--3--5--5--------5-------m

Am

G
Am

F
G
Am
F
G
Am
,


'
,
Bm

Am

Bm

Am

Bm

Am

Bm

Am

Am

Am

G Am

,

'
,

'
'
'
,
...

-
: KaTaDiKoS
: 12-11-2000

:
|---------------------------------------------------------|---------------------------------------------------------|-------7--------------------------5-5---5--5-------------|-----8---8----------5-5----------5-5---5--5-8-7----------|---8-------8------5-----5----5---------------------------|-6--------------3-----------3-------------------8--------x x x x x
x x x x x
x x
x
x
x
x

( )
Bb Gm Dm
Bb

'
'

] 2x
Gm
Dm



Bb
Gm
Dm F Eb Bb Gm Dm

Bb
Gm
Dm F Eb Bb Gm F

Keyboard
D Bb C F Bb C F

] 2x

' :
|---------------------------------------------------------------|---------------------------------------------------------------|-12--14--15-----15--14---12------12---14---12------------------|---------------------------------------------------------------|----------------------------------------------------------------

|---------------------------------------------------------------|---------------------------------------------------------------|---------------------------------------------------------------|---15/-17--15p--14------17p15-14-15--14--12--14-14-------------|---------------------------------------------------------------|---------------------------------------------------------------|---------------------------------------------------------------|---------------------------------------------------------------|---------------------------------------------------------------|-15-15-15-15--14--12----12--14-12------15/17------15p-14-------|---------------------------------------------------------------|---------------------------------------------------------------|---------------------------------------------------------------




: Lykojohn
: 12-11-2000

:
Guitar 1:
e----------------------------------B----------------------------------G----------------------------------D--9-9-9--5-5-5--7--7-7-7-7-7-7-7--A--9-9-9--5-5-5--7--7-7-7-7-7-7-7--E--7-7-7--3-3-3--5--5-5-5-5-5-5-5---

Guitar2 (
, ):
e-----------------------------------------------------------------B---------------------7-------------------------------------------G---7-6---6-7-6---6-7--7-6-7-6---6-7-6--6-7-6---------------------D-------7-------7--------------7-------7---------7--7--7-7-7-7-7-7A-----------------------------------------------------------------E------------------------------------------------------------------

7
:
e----------------B----------------G----------------D--7--7-7-7-7-7-7A----------------E-----------------

:
G----------------------------------------------D------------------------9-9-9--5-5-5--7-------A------------------------9-9-9--5-5-5--7-------E------------------------7-7-7--3-3-3--5-------" ,
..."

Pre-chorus:
G---------------------------------------------D-------------7-7----------------7-7-----------

] 2x

A-------------7-7----------------7-7----------E-------------5-5----------------5-5----------" , , "

Chorus ( - tablature -
):
G--------------------D--7-7-7-7-7-7-7-7---A--7-7-7-7-7-7-7-7---E--5-5-5-5-5-5-5-5---" "

( ,
)
G--------------------------------D--9-9-9--5-5-5--7--7-7-7-7-7-7-7--A--9-9-9--5-5-5--7--7-7-7-7-7-7-7--E--7-7-7--3-3-3--5--5-5-5-5-5-5-5--" "

:
Guitar1 fill-in1:
e-----------------------------------------B-----------------------------------------G----------------------------7-6---6-7-6--D--7-7-7-7-7-7-7-7---------------7--------A--7-7-7-7-7-7-7-7------------------------E--5-5-5-5-5-5-5-5------------------------" "

" .."
:
e------------------------------------------------------------------------------B------------------------------------------------------------------------------G-----------6----7------7----6----------------------------7--6-----6--7--6-----D------9-----------------------------9----7----5--7-------------7------------7-A------------------------------------------------------------------------------E-------------------------------------------------------------------------------

" "
.
.
.

-
: KaTaDiKoS
: 12-11-2000

intro:
Em
A
|-----------0--0----------------------------------------|-----------0--0---------2--------2-2-2-----------------|-----------0--0---------2--------2-2-2--2--3--2--3-----|-------------------------2--------2-2-2----------------|-------------------------------------------------------|---0---------------------------------------------------Em
G
A

Em
G
A

Em
G
A

Em
G
A
Em

G
A
Em

A

Em

G
A
Em

Em

Em

Em G

Em

'

'






,





,
,


,








...

...

...
...
... , , , ,

-
/: /

:
: 07-08-2000

E:
E----------------------------------------0----------------B----------------------------3--1--0--1-----3--1--3-------G-------0--2-----------------------------------------0--2-D--2--3-------2--3--3--2--2-------------------------------A---------------------------------------------------------E---------------------------------------------------------F

G Am

F

Am


G

G
'

Em

Dm

Em

Dm


' '

' '

' '

' ,

...
Am

Bb Am


C
F
'

Solo:
E--------------------------------------12------------B--13-12-13----13-12-13----13-12-13-15----15-13-12---G-----------14----------14-------------------------14D----------------------------------------------------A----------------------------------------------------E-------------------------------------------------------------------------12-------12------------12-13-15-13-15-13-15----13-15----15-13-12------------------------------------------------------------------------------------------------------------------------------------------------------------------------------------

E----------------------------------------------------B--15/1-15/1-15/1-15/1-15/1-15/1-15/1-15/1-15/1-15/1\G----------------------------------------------------D----------------------------------------------------A----------------------------------------------------E-------------------------------------------------------------------12-13-15/1-13----12-----------13----12-13-15---------------15----15-13-14---14----------------------------------------------------------------------------------------------------------------------------------------------------------------------------

* 15/1 15 , .
15up17
15/1\
....

-
:
: 07-08-2000

[ ; .
sites
: , ! ,
, .
, .]

D
...
Bm
, ;
...
' , ;
Bm
...
F#
'
A
'
E
,




...
' , ;
, ;
...

-
/: /

:
: 07-08-2000

[ ; .
sites
: , ! ,
, .
, .]

Em
G D






'

E
G

D
A

E
G

D
A
,

'

'
' '


, ,

-
: KaTaDiKoS
: 12-11-2000

:
G D Am C Am Em D G
G

D

Am

C

Am
Em

D
G












-
: KaTaDiKoS
: 12-11-2000

[ ; .
sites
: , ! ,
, .
, .]

:
Dm
|---------------------------------------------|---------------------------------------------|---------------------------------------------|--------2--------2----------------2----2-----|---4--------4---------4---4---------4--------|---------------------------------------------F
C
|---------------------------------------------|---------------------------------------------|---------------------------------------------|------2--------2----------1--1-----1---------|-2--------2---------2-----------2------------|----------------------------------------------

Am
.

Solo

|--------------------------------------------------------------------------------|----------------------------------------------------------------------5/8b8\5---|---4-2-4-2h4p2-----4-2-4 2h4p2-4/5--(5)\4---4-4/5b4p-2---5----------------------|--------------------------------------------------------------------------------|--------------------------------------------------------------------------------|--------------------------------------------------------------------------------|-------------------------------------------------------|-------------------------------------------------------|--(2)--3p2h3p2h3-(3)/5p3h5p3h5----3p2h3p2h3---2-3/9----|-------------------------------------------------------|-------------------------------------------------------|-------------------------------------------------------|-------------------------------------------------------|--3p2h3p2-(3)/5---3p2h3h2-(3)/7---3p2h3p2-(3)/9--------|-------------------------------------------------------|-------------------------------------------------------|-------------------------------------------------------|-------------------------------------------------------Am

'
'
digital

'


,
,


,

,
, ...
, '

'

-
/: /

:
: 07-08-2000

Am
'
F

G
Am




F

G
Am

F
G
Am
'
F
G
Cm
' '
F
G
Am

'



'

-
:
: 07-08-2000

D
'

Em

G
D



'
,
D
A Em G

Em
Bm

A
G
D



'


-
:
: 09-03-2002

[ ; .
sites
: , ! ,
, .
, .]

Em
A
(E) |--9-9-9-9-10-10-10-10-7-7-7-7-5-5-8-8--(B) |---8-8-8-8--8--8--8--8-5-5-5-5-5-5-5-5-Em
A
Em
A

E5
B5
G5
F#5
A5

D5
E5

B5
G5
F#5
A5

D5
E5 B5

C5
D5
E5 B5
C5
D5


-
/:

:
: 15-03-2002

[ ; .
sites
: , ! ,
, .
, .]

:
C G B

] 6x

C G
B
C
G
B
'
Am
C
G
C
G
B Em

C

G B
C
G B

Am
C
G
C
G
B C
'
G B C

] 3x
G B Em



,
'

] 4x

-
/: . , .

:
: 14-05-2002

[ ; .
sites
: , ! ,
, .
, .]

Bm
G
Bm
,
G
D
Bm
' ,
,

,

,

-
:
: 14-05-2002

[ ; .
sites
: , ! ,
, .
, .]




'
' ...

', '


' ...

-
:
: 09-03-2002

[ ; .
sites
: , ! ,
, .
, .]

:
D Em G
] 4x
D A Bm F#m F#m G

] 2x

( F#m )
D
Bm
F#m
G



D Em G



,
'
, ,

-
: parpen
: 17-11-2002

[ ; .
sites
: , ! ,
, .
, .]

] 6x

C
G

C
G

C
G

C
D

Em
G

Em
G
D
G

C
G

C
G

C
G

C
D

Em
G

Em
G
D
G

...

( Fade Out)

-
:
: 13-02-2002

[ ; .
sites
: , ! ,
, .
, .]

Intro:
Am Em - G F G Am
Am
Em

G
Dm
Am

Am
Em

Am
F
Em

'
'

'

G
Dm
Am

G
Dm
Am

Am
Em

G
F
G
Am

Am
F
'
G
Em

Am
F
'
G
Am

Am

G
Am

Am
F

G
Am
' '


'


'

'

-
:
: 23-05-2000

[ ; .
sites
: , ! ,
, .
, .]

Am
Em

F
E
E7

Am
Em

F
E
E7

C
G

F
E

C
G

F
E

Am
G
Am


'

,




,

] 2x
A

- Bob Dylan
: Count zero
: 31-03-2001

Solo:
Bm
G
D
Em
A
E-------------------------------------------------------------------------------|B-------------------------------------------------------------------------------|G--------------16-16-14-16--------------12-12-10-12-----------7-7-5-7---9-75----|D-----------16-------------14--------12-------------10------7---------5------7--|A--14-14h16--------------------10h12-------------------5h7----------------------|E-------------------------------------------------------------------------------|B
m

D
G

Am
Em

G
A
.

Solo

'

.

Solo



.

Solo



.

Solo

- , .
/: /

:
: 21-06-1998

[ ; .
sites
: , ! ,
, .
, .]

Cm
A#
,
A#
G
Cm








, ,










, ,
,
| 2x
| 2x

-
/:

:
: 21-06-1998

[ ; .
sites
: , ! ,
, .
, .]

D
Em
,
G
A
D
K ,
T

Bm
A
,
A
Bm

Z ,
K , ,
K ,
Bm
M ,
A
Bm
B
M ,

D...
O ,


, ,
Bm...
,

B
A
Bm...
A ,
T
K ,
T ,
D...
T ,

A ,
E
Bm...
K ,

M ,
T
Bm...
A ,
M ,
K

-
/:

:
: 30-05-2000

[ ; .
sites
: , ! ,
, .
, .]

Em Am
Em Am
,
'
G
F
E
Am

Em Am
Em
Am
,

G
F
E Am
,

Am
Dm
,
Am
Dm
,
Dm
E
, '

Am

Em

Am

Em

Am

,

,
'
...
,

-
/: /

:
: 21-06-1998

[ ; .
sites
: , ! ,
, .
, .]

Am
Dm

F G Am

Am
Dm

F G Am

Am
F
Em
Am
,
F Dm Am

Am
F
Em
Am
,
FDm
Am



,

...
,

,

...

-
:
: 30-05-2000

Am
Dm
,
Am
,
Dm
,
Am
,
Am
Dm
,
Am

Dm

G
Am

!
-, , -
- ,
-, -, -







!
,
- ',
,
,






!

"-" :
3 :
e
B
G
D
A
E

|----------5------------7-----------8------------7--------------|-----------------5-----------5-----------5-------------5-------|---------------------------------------------------------------|---------------------------------------------------------------|---------------------------------------------------------------|----------------------------------------------------------------

:
e
B
G
D
A
E

|--------5~~~---------5--------------------|------------------------5-----------------|------------------------5-----------------|------------------------------------------|------------------------------------------|-------------------------------------------

-
/: /

:
: 21-06-1998

[ ; .
sites
: , ! ,
, .
, .]

Am
E

E
Am
,
Am
E

E
Am DmAmE Am











,


A#m...



,
Bm...
,
, ,

; , ,
Cm...




Cm#...
...

-
: 16-08-2000
/:
/

[ ; .
sites
: , ! ,
, .
, .]


,
Bm

Em


Bm
Em

A
D
F7




Bm
A
G

G
A
D
F7



G A G
A
G
, , ,
A G
A
, ,







...






...

-
:
: 16-09-2000

Intro:
Em

Bm

A Em

Bm

Em
Bm A Em
Bm
A


Em
Bm A Am
Bm Em Bm A


Em
Bm A Em


Bm
A Am
Bm

G
Em
C
G


Em
Am
Bm
Em
'

Bm A Em

Bm A Em




'

'

Solo
B-----------8-----8--8------------------------------8-G--7--9--9-----7--------9------------7----------------D--------------------------7---9--9------7---9--9-----B-----------8-----8--8-------------------10--10--8-----10--8-----8G--7--9--9-----7--------9------------7--------------9---------9---D-------------------------7---9--9-----9--------------------------B-----------8-----8--8------------------------------8--G--7--9--9-----7--------9------------7-----------------D--------------------------7---9--9------7----9--9-----B----------8-----8--8-----10--10--8-----10--10--8-----10--8-----8G--7--9--9----7--------9-------------9-------------9---------9---D----------------------------------------------------------------e--7---10---7--10---7--10---7-------------------------B------------------------------10--8-------10--10--8--G--------------------------------------9--------------D-----------------------------------------------------B--8--8-----8-----8-----8----------G--------9-----9-----9-----7--9--7-D----------------------------------e---7--10---7--10---7--10---7------------------7-----B------------------------------10--10--8--10------10-G----------------------------------------------------D----------------------------------------------------e---------7-----------7------------7----------7------------7--------7-----------B--10--8-------10--8-------10--8-------10--8-------10--8-------10------10--8----G-----------------------------------------------------------------------------9-D--------------------------------------------------------------------------------

-
/: /

:
: 14-10-2002

[ ; .
sites
: , ! ,
, .
, .]

-------------------------------------------------------------------------------------------------

-14~--17-16-12--14---12-14---14-17-16-12-12--14-------------------------------------------------------------------------------------------------------------------------------------------------Em
C
D
Am
A
,
,
'
Em
C
D
Am

Em
C
D
Am

Em
C
D
Em
,

Am
D
C

Am
Bm
D
C

D
Em

1. 2.
---7-----7-----7---------|---7-----7-----7---------------8-----7-----8-7---|-------8-----7-----8-7---7---7-----7-----7-----7-|-7---7-----7-----7-----7-------------------------|-------------------------------------------------|-------------------------------------------------|-------------------------

1(3x) - 2 - 1(3x)
Am
D
Em Am
D
C
,
| 2x
Am
D
Em Am
D
,
C
.
| 2x
Em
C
D
Am

Em
C
D
Am
,
Em
C
D
Am
,
Em
C
D
C
Em
, ,
...

solo:
--------------------7-----7-----7--------------------------7-----7----7----------------------------------8-----7-----8-7------------------------8-----7-----87-----14h16-14-12-14---7---7-----7-----7-----7--14h16-19-14---7---7-----7-----7----7------------------------------------------------------------------------------------------------------------------------------------------------------------------------------------------------------------------------------------------------------

--------------------7-----7----7-------------------------------------------------------------------------8-----7-----87--------------------------------------------14h16-14-12-14---7---7-----7-----7-----7--14h16-19-14---12-11-11b11------------------------------------------------------------------------------------------------------------------------------------------------------------------------------------------------------------------------------------------------------------------------------------7-----7----7-------------------------------------------------------------------------8-----7-----87--------------------------------------------14h16-14-12-14---7---7-----7-----7-----7--14h16-14-12-14--16~~-14-12-14--1614---------------------------------------------------------------------------------------------------------------------------------------------------------------------------------------------------------------------------------------------------------7-----7----7-------------------------------------------------------------------------8-----7-----8-7----16-19-14--12-11-11b11-----------------------------------7---7-----7-----7----7-------------------------------------------------------------------------------------------------------------------------------------------------------------------------------------------------------------------------------------------------------------------------------------------------------------K
Em
C
D
Am
O .

Em

-
/:

:
: 21-06-1998

[ ; .
sites
: , ! ,
, .
, .]

Em
D

Em
D
Em D Em

Em
D
,
Em
D
Em D Em











,



,




-
/:

:
: 21-06-1998

[ ; .
sites
: , ! ,
, .
, .]

D
Em
, ,
Em
A
D


,
D
G
D
,
D
Em
A
D
, , ,
,
, ,
, ,
, ,


...



, ,
,
,

...

-
/:

:
: 21-06-1998

[ ; .
sites
: , ! ,
, .
, .]

Dm
F
,
Gm
Dm Gm
Dm
Gm F C
Dm
, ,
A#
F
A#
F
Gm
Dm

A#
F
A#
F
Gm
Dm
,
C
Dm

,



,
,

-
/:

:
: 21-06-1998

[ ; .
sites
: , ! ,
, .
, .]

Dm
- ,
Dm
C
Dm
,
-, ,
,
F
, , ,
A#
C
F

,
,
,
, ,
- ,
-,

, ,

,

- ...
...

- Rock n roll
: Ralf
/: / : 04-01-2002

[ ; .
sites
: , ! ,
, .
, .]

:
h,p:hammer-on,pull-off(=legato)
\,/:slide
t:tapping( )
A.H.:Artificial Harmonic
:
-------------------------------------------------------------------------------------------------------------------------------------2---2-2-2-2-2-2---2---2-2-2-2-2---5---7-----2---2-2-2-2-2-2---2---2-2-2-2-2---5---7-----0---0-0-0-0-0-0---0---0-0-0-0-0---3---5----E
G
'

---10\12---12-10-----12b----8---------------12--------------------------------------------------------------------------------------------------------------------E
G

-------------------------------------9br---12-12/9----------------------------------------------------------E

-----------------------------------------------------------7h9p7h9p7h9p7h9p7/4----(9)-----------------------------------------------------------------------------E
G

-------------------------------------9br----12/9-------------------------------------------------------------

B
'

----7--------------------10------------9b------9-7br---------------------------------------------------------------


-------7-----------------10b---------7-----------(9)--------------------------------------------C
D
E

-10\12---12-10--------------------------12-10--8------------------------------------------------------------------------------------------------------
----------------10br--10----------------9/------------------------------------------------
---------12--------15br--15br/----12-15b-----15-12----------------------------------------------------------------------------------------------------------------------------------------------------
-----------------------------------------------------------7h9p7h9p7h9p7h9p7/4----(9)----------------------------------------------------------------------------- '
------------------------------10b--8-10-10b-8------8-10--------------------9--------------------------------------------------------------------------------------------------B
'


C
D
E

Solo:
(--A.H.--)
-10\12----10-12-10-12---12-10-12---------------------------------------------------------------------------------------5-3b-------------------------------------------------------------------------------2br--0-------------------------------------------------------------------------------2-------2-----2----2-----------------------------------------------------------------------------------------------------------------12/-----------------------3b----3b----3b---

-------------------------------------------------------------------------------------------------------------------------------------------------------------------7----7-6----------9-----7\9--9-9-9\11--11\12/11-9---7h9p7--6h7-------2----9-----------9-7-------------------------------------------------------------------------------10b--------------------------------------------------------------------------------------------------------------------------------t
t
t
---------------------------------------------------------------0h3p0h2p0--------------------------------------------------------3-5-----5-------------3p0--6h7p6-----------9--7b---9--7b---9---------------4------4----------------------------7\9--------------------------7\9/7/5-------------------------------------------------------------------------------------------------------------------------------------------------------------------------------------------t
t
-0h3p0h5p3/2------------17p14------17p14------17p14---------------------------------------3b-----17b--------17b--------17b----------15-17-----15--------15--------------------------------------------------------------16------16--------------------------------------------------------------------------------------------------------------------------------------------------------------------------------------------------------------------------------------------t
t
t
t
t
t
t
t
-19p14-19p14-19p14-19p14-19p14-19p14-19p14-19p14----19--14---19b--------------------------------------------------------------------------------------------------------------------------------------------------------------------------------------------------------------------------------------------------------------------------------------------------------------------------------------------------------------------------------------------------------------E
E D B A G

E
E D B A G

E
E D B A G

E
E D B A G

'

'

t
t
t
t
-------------------------12-15p12-15p12-15p12-15p12-----12----15br--12------------15b-----------------------------------------------14br-12------------------------------------------------------------------------------------------------------------------------------------------------------------------------------------------------------------------------------------

- '
:
: 16-10-2002

[ ; .
sites
: , ! ,

, .
, .]

original .
...
Intro:
D, Dsus4,

D, Dsus4, D

D Dsus4 D
A
Asus4 A

G
A
D Dsus4 D

D
A
Asus4
A

G
A
D
Dsus4 D

G
A
D Dsus4 D

G
A
D
Bm

Bm
A
Asus4
A

G
(A)
D Dsus4 D
,
Em
Emadd9
,
,

A Asus4
A
D
Dsus4
,
,







-

, ,
, ,







-
: adynatos
: 30-11-2002

Intro:

Guitar 1
e|-------0----------------0------------0-------------|
B|-0101----101-----0101------1010101-----10--------|
G|-----~~~~-------------------------------------2----|
D|---------------------------------------------------|
A|---------------------------------------------------|
E|---------------------------------------------------|

Guitar 1
e|---------------------0-----------------------------|
B|----------0------0-------13-----------------------|
G|----022-----2--------------------------------------|
D|---~~----------------------------------------------|
A|---------------------------------------------------|
E|---------------------------------------------------|

Guitar 2
e|---------------------------------------------------|
B|---------------------------------------------------|
G|-0202--5-2-0-2--02025-2-0-202025----------------|
D|--------------------------------------2------------|
A|-----------------------------------------3----0----|
E|---------------------------------------------------|

Guitar 2
e|----------------------8---------5------------------|
B|----------5-8----5-8--------8----------------------|
G|-----5-7-------------------------------------------|
D|---------------------------------------------------|
A|---------------------------------------------------|
E|---------------------------------------------------|
Am
G
E/Ab
Am

'
' ,



'
D+
Am

D+
Am

D+
Am

G +
E/Ab
Am
'







' ,
'...

- 69
/:

: adynatos
: 18-12-2002

E7#9
A7
'69 '
E7#9
A7
'
E7#9
A7

F#
F Fsus4
E#9
" ", ', " ' "
'
' "
,
"
"'

'

,


, !"



,
, ,
,
...

Guitar
E7#9
e|---x--------|
B|---8--------|
G|---7--------|
D|---6--------|
A|---7--------|
E|---0--------|
A7
e|---x--------|
B|---8--------|
G|---6--------|
D|---7--------|
A|---0--------|
E|---x--------|
F#
e|---2--------|
B|---2--------|
G|---3--------|
D|---4--------|
A|---4--------|
E|---2--------|
F
Fsus4
e|---5-------6---------|
B|---6-------6---------|
G|---5-------5---------|
D|---x-------x---------|
A|---x-------x---------|
E|---x-------x---------|

-
/:

:
: 12-09-2002

[ ; .
sites
: , ! ,
, .
, .]



D|-2--2----1h2--2----1h2--A|--2--2h4----2--2h4-------


D|-2-2-2-1-1-1-1-2-2-2-2-1-1-1-1-2-A|--2-2-2-2-2-2-2-2-2-2-2-2-2-2-2--Em


Em

Em
B

Em
'
e|-0-------------------------------B|----0----------------------------G|---------------------------------D|-------2----2--2----1h2--2----1h2A|---------2---2--2h4----2--2h4---- -




-
'
'
'

D|2-----2------2-2-2-1-1-----1-----1------1-1-1------------|
A|-2-2-2-2-2-2--------4-2-2-2-2-2-2-2-2-2------4-2-4-2-2-2-|
D|2-----2------2-2-2-1-1-----1-----1------1-1-1-1-2-|
A|-2-2-2-2-2-2--------4-2-2-2-2-2-2-2-2-2------4----|
, , , , , , , , ...




-
,
'


, , , , , , , ,


, ,
-
'