You are on page 1of 18

Tablature for Bireli Lagrene & Sylvain Luc's MADE IN FRANCE Pagina 1 di 18

#----------------------------------PLEASE NOTE---------------------------------#
#This file is the author's own work and represents their interpretation of the #
#song. You may only use this file for private study, scholarship, or research. #
#------------------------------------------------------------------------------#

MADE IN FRANCE
As recorded by Bireli Lagrene & Sylvain Luc
(From the 2001 Album DUET)

Transcribed by Steve Royall & osmanros

Gtr I (E A D G B E) - 'Untitled'
Gtr II (E A D G B E) - 'Untitled'

Q=155
4/4
Gtr I
Q e E E Q S S S E. E e E Q E
||--------12----12-12--------|--------------12-----x-----||
||o--12---12----12-12--------|------12------12--x-------o||
||---12---12----12-12-----12-|--12--12------12-----------||
||---12---12--------------12-|--12--12-------------------||
||o--------------------------|--------------------------o||
||---12-------------------12-|--12--12-------------------||
|
| Gtr II
| Q Q. Q. Q Q H
||---------------------------|-----------------<7>-------||
||o-<12>--<7>-------7--------|-<12>-----<7>----<7>------o||
||--<12>--<7>-------6--------|-<12>-----<7>--------------||
||---------------------------|---------------------------||
||o--------------------------|--------------------------o||
||---------------------------|---------------------------||

Q e Q E Q Q q E E Q
|-14---12-----14-12--|-14----12----------x---|
|-12---12-----12-12--|-12----12-------x------|
|-12---12-----12-12--|-12----12--------------|
|-12-------------12--|-12--------------------|
|--------------------|-----------------------|
|--------------------|-----------------------|
|
| E Q E H E Q. E Q.
|--------------------|---------------<7>-----|
|--7-7----7-5--------|----7----------<7>-----|
|--6-6----6-4--------|----6-------7----------|
|--------------------|-----------<7>---------|
|--------------------|-----------------------|
|--------------------|-----------------------|

|--3--| |--3--| |--3--| |--3--| |--3--|


Q E E E E +E E Q H S S S S S E E E E E E E E E E E E
|-14---12-----14-12--(12)----|-12------------------15-11-||-14-12-11-12----------------------12-|
|-12---12-----12-12--(12)----|-12---------12h13p12-------||-------------12----------------------|
|-12---12-----12-12--(12)-12-|-12------------------------||----------------12-11----11-12-13----|
|-12---12-----12-12--(12)-12-|-12------------------------||----------------------14-------------|
|----------------------------|---------------------------||-------------------------------------|
|-------------------------12-|---------------------------||-------------------------------------|
|
| E E S S E E Q. +q Q H H Q q
|----------------------------|---------------------------||-------------------------------------|
|----7----7----7--5----------|-(5)-----------------------||--0----------------------------------|
|----6----6----6--4----------|-(4)-----------------------||--0--------------------------4-------|
|----------------------------|---------------------------||--2--------------------------2-------|
|----------------------------|---------------------------||--2----------------------------------|
|----------------------------|---------------------------||--0-----------------3----------------|

|--3--| |-3-| |-3-| |-3-| |-3--| |-3-| |--3--|


Q S S S E E E E E E E E E E E E E E E E E E E
|-----------------------------|------------------------8-10------|
|-15--15h16p15-13-------------|------------------7-10------------|

mhtml:file://F:\Musica\Tablature for Bireli Lagrene & Sylvain Luc's MADE IN FRA... 16/03/2007
Tablature for Bireli Lagrene & Sylvain Luc's MADE IN FRANCE Pagina 2 di 18

|-----------------------------|----------------8-----------------|
|-----------------------------|-------7-10-8-9-------------------|
|-----------------------------|---6-9----------------------------|
|-----------------8p7-6-7-8-6-|-7--------------------------------|
|
| |-3-| |-3-| |-3--|
| Q q E E E E E E Q E E E Q E. S
|-----------------------------|----------------------------------|
|-----------------------------|----------------------------------|
|------5----------------------|----------------------------------|
|------5----------------------|------------0-1------4-------1----|
|-----------------3p2p1-2-3-1-|-2-----2--3-----------------------|
|--5--------------------------|----------------------------------|

|-3--| |-3-| |---3---| |----3----| |--3--| |--3--| |---3----| |--3--|


E E E E Q S S S E E E E E E E E E E E E E E E E
|-8h10p8-7---7------------------------15---11-|-14-12-11-12---------------------------12-|
|----------------12h13p==12-11---12-----------|-------------12---------------------------|
|---------------------------------------------|----------------12-11-------11---12-13----|
|---------------------------------------------|-----------------------14-----------------|
|---------------------------------------------|------------------------------------------|
|---------------------------------------------|------------------------------------------|
|
| |--3--| |--3--|
| q S E E E E S E Q E E E +E S S E E E
|---------------------------------------------|------------------------------------------|
|---------------------------------------------|------------------------------------------|
|---------------------------------------------|------------------------------------------|
|-0-------------------------------------------|----------------------------------------8-|
|----------3---2-------0----------------------|----------------------------------7--9----|
|------------------------------3---------2----|--0--------2--3--4-(4)----7h===8----------|

|---3----| |-3-| |-3-| |-3-| |-3--| |-3-| |-3-|


Q S S S E E E E E E E E E E E E E E E E E E E
|----------------------------------|------------------------------|
|-15--15h=16p==15-13---------------|------------------7-10-8-7----|
|----------------------------------|----------------8-------------|
|----------------------------------|-------7-10-8-9---------------|
|----------------------------------|---6-9------------------------|
|----------------------8p7-6-7-8-6-|-7----------------------------|
|
| |-3-| |-3-| |---3----|
| Q +S S S S E E E E E E Q Q Q Q Q
|----------------------------------|------------------------------|
|----------------------------------|------------------------------|
|----------------------------------|------------------------------|
|--7--(7)----6-----5-4-------------|---------------------1--------|
|----------------------3-2-1-2-3-1-|-2-----2----3---4-------------|
|----------------------------------|------------------------------|

|-3-| |--3--|
E E E E E E Q. E E E E Q E E E
|------------------------|----15-14-12---14------|
|---8--------------------|--------------------10-|
|-9------9---------------|-----------------------|
|-----9--------9------12-|-14--------------------|
|-----------10---7-------|-----------------------|
|------------------------|-----------------------|
|
| |-3-| |-3-|
| Q E +E Q Q. E H H
|------------------------|-----------------------|
|------------------------|-------------5---------|
|------------------------|--5----------5---------|
|-2----------------------|--5----------4---------|
|-----2-(2)--------------|-------------5---------|
|------------3---0-------|--5--------------------|

|--3---|
E S S Q Q Q E E E E +E Q Q
|----12h=14p12--10-----12---|-12-11h=12p11-(11)-9-----11--|
|-12------------------------|-----------------------------|
|---------------------------|-----------------------------|
|---------------------------|-----------------------------|

mhtml:file://F:\Musica\Tablature for Bireli Lagrene & Sylvain Luc's MADE IN FRA... 16/03/2007
Tablature for Bireli Lagrene & Sylvain Luc's MADE IN FRANCE Pagina 3 di 18

|---------------------------|-----------------------------|
|---------------------------|-----------------------------|
|
| E Q. E Q E E Q. E Q.
|---------------------------|-----------------------------|
|-----3-------------3-------|-----2----------------1------|
|-----4-------------4-------|-----2----------------2------|
|-----4-------------2-------|-----2----------------1------|
|---------------------------|-------------------2-(2)-----|
|--3-(3)---------3-(3)----3-|--2-(2)----------------------|

|--3--| |-----3-----| |--3--|


E E E E E E Q S S S E
|-12-15----12----------------------------|
|-------12-------------12----------------|
|--------------12------------------------|
|-------------------------14--12h14p12-9-|
|----------------------------------------|
|----------------------------------------|
|
| Q E Q. Q
|-----------------<12>-------------------|
|----------<7>---------------------------|
|----------<7>---------------------------|
|----------<7>---------------------------|
|----------------------------------------|
|--0-------(0)---------------------------|

|--3--|
E E E E +E q E Q E E E E Q e
|----15--14-12-(12)-14-----|--------12h14p12-12-10---12-|
|-----------------------10-|-12-------------------------|
|--------------------------|----------------------------|
|-10-----------------------|----------------------------|
|--------------------------|----------------------------|
|--------------------------|----------------------------|
|
| E Q. H E Q. E Q.
|--------------------------|----------------------------|
|----------------5---------|-----3---------------3------|
|-----5----------5---------|-----4---------------4------|
|-----5----------4---------|-----4---------------2------|
|----------------5---------|----------------------------|
|--5-(5)-------------------|--3-(3)-----------3-(3)-----|

|--3--| |--3--| |--3--| |-3-| |-3-| |-3-| |-3-| |-3-|


S S S S S S S S S S S S S S S S S S S S S S S S
|-12-12-12-11-11-11-10-10-10-9-9-9-8-8-8--7-7-7-6-6-6--5-5-5-|
|------------------------------------------------------------|
|------------------------------------------------------------|
|------------------------------------------------------------|
|------------------------------------------------------------|
|------------------------------------------------------------|
|
| E E E E E E E E
|-----------3----------------6------------9-----------11-----|
|-----------4----------------7-----------10-----------13-----|
|-----------3----------------6------------9-----------12-----|
|-----------2----------------5------------8-----------11-----|
|------------------------------------------------------------|
|------------------------------------------------------------|

|--3--| |--3--|
H S S S E E E E
|-4---------------------15-11--||
|--------12h13p12-11-12--------||
|------------------------------||
|------------------------------||
|------------------------------||
|------------------------------||
|
| E Q E H
|---8--------------------------||
|---9--------------------------||

mhtml:file://F:\Musica\Tablature for Bireli Lagrene & Sylvain Luc's MADE IN FRA... 16/03/2007
Tablature for Bireli Lagrene & Sylvain Luc's MADE IN FRANCE Pagina 4 di 18

|---8--------------------------||
|---7--------------------------||
|------------------------------||
|------------------------------||

|--3--| |--3--| |--3--| |--3--| |--3--| |-3-| |-3-|


E E E E E E E E E E E E Q S S S E E E E E E E
|-14-12-11-12----------------------12-|-----------------------------|
|-------------12----------------------|-15--15h16p15-13-------------|
|----------------12-11----11-12-13----|-----------------------------|
|----------------------14-------------|-----------------------------|
|-------------------------------------|-----------------------------|
|-------------------------------------|-----------------8p7-6-7-8-6-|
|
| |--3--| |--3--| |--3--| |-3-|
| Q E E E E E E E E E Q E E Q E E E
|-------------------------------------|-----------------------------|
|-------------------------------------|-----------------------------|
|-------------------------------------|-----------------------------|
|--2--------1--0----------------------|-----------------------4-3-2-|
|-----------------3--2--0-------------|-----------------------------|
|--------------------------3--2--0--4-|--5---3--------2-------------|

|-3-| |--3--| |---3---| |--3---|


E E E E E E E E E E E E
|----------------------------------8-10---|
|-------------------------7---10----------|
|---------------------8-------------------|
|-------7--10-8---9-----------------------|
|---6-9-----------------------------------|
|-7---------------------------------------|
|
| |---3---| |-3--|
| Q E. E E E E Q S
|-----------------------------------------|
|-----------------------------------------|
|-----------------------------------------|
|-1---------------------------------------|
|---------------3---2---0-----------------|
|---------------------------3----2------3-|

|-3--| |3| |--3--| |--3--| |--3--| |---3---| |---3---| |--3--|


E E E E Q S S S E E E E E E E E E E E E E E E E
|-8h10p8-7-7------------------15-11-|-14-12-11-12--------------------------12-|
|--------------12h13p12-11-12-------|-------------12--------------------------|
|-----------------------------------|------------------12-11------11-12-13----|
|-----------------------------------|------------------------14---------------|
|-----------------------------------|-----------------------------------------|
|-----------------------------------|-----------------------------------------|
|
| |-3-| |--3--| |--3--| |--3--|
| Q E E E E Q Q E Q E Q E Q E
|-----------------------------------|-----------------------------------------|
|-----------------------------------|-----------------------------------------|
|-----------------------------------|-----------------------------------------|
|-----------------------------------|-----------------------------------------|
|------------0--2-----3-----4-----6-|--7--------6----5----------4-----3-----2-|
|-0------2h3------------------------|-----------------------------------------|

|--3--| |-3-| |-3-| |-3-| |-3--| |-3-| |-3-|


Q S S S E E E E E E E E E E E E E E E E E E E
|-----------------------------|---------------------------|
|-15--15h16p15-13-------------|------------------7-10-8-7-|
|-----------------------------|----------------8----------|
|-----------------------------|-------7-10-8-9------------|
|-----------------------------|---6-9---------------------|
|-----------------8p7-6-7-8-6-|-7-------------------------|
|
| |--3--| |-3-| |3| |-3-| |-3--| |-3-| |-3-|
| Q S S S E E E E E Q E E E E E E E E E E E E
|-----------------------------|---------------------------|
|-----------------------------|---------------------------|
|-----------------------------|---------------------------|
|---------------------4-3-2---|---------------------------|

mhtml:file://F:\Musica\Tablature for Bireli Lagrene & Sylvain Luc's MADE IN FRA... 16/03/2007
Tablature for Bireli Lagrene & Sylvain Luc's MADE IN FRANCE Pagina 5 di 18

|--0---2--3-------3p2---------|-2h3-2--------2h3-2--------|
|------------3--2-------------|-------3--2-3--------3-2-3-|

|-3-| |--3--| |-3-| |--3--| |-3--| |-3-| |-3--|


E E E E E E Q. S S S E E E E E E E E E E E E
|---------------------------||------------------------------|
|---8-----------------------||------------------------------|
|-9------9------------------||------------------------------|
|-----9--------9------------||-------------------7-8-9-10-9-|
|-----------10---7----------||---------------6-9------------|
|---------------------7-7-7-||-7-8---7--6--7----------------|
|
| |-3-| |-3-|
| Q E +E Q H E E H Q
|---------------------------||------------------------------|
|---------------------------||-----------------------5------|
|---------------------------||-----------------------5------|
|----------------2----------||----------4------------5------|
|------------2--------------||-----2---(2)-----------2------|
|-0---3-(3)-----------------||------------------------------|

|-3-| |--3---| |--3--| |-3--| |-3-| |-3--| |-3-| |-3--|


E E E E E E E E E E E E E E E E E E E E E E E E
|----------------------------------|-------------------------------|
|-----------10-11-12-13-12-11-10-9-|-8-7-------7-8-10-8-7----------|
|-----8-11-------------------------|-----9--8-------------9-8------|
|-8-9------------------------------|--------------------------10---|
|----------------------------------|-------------------------------|
|----------------------------------|-------------------------------|
|
| Q H Q Q H Q
|--------2-------------------------|--------2-------------5--------|
|-4-----(4)-----------------5------|-4-----(4)------------5--------|
|-4-----(4)-----------------5------|-4-----(4)------------5--------|
|-4-----(4)-----------------5------|-4-----(4)------------5--------|
|-2-----(2)-----------------2------|-2-----(2)------------2--------|
|----------------------------------|-------------------------------|

|--3--| |-3-| |3| |-3-| |-3-| |-3--| |-3-| |-3--|


E E E E E E E Q +E S S S E E E E E E E E E E E E
|------------------------------|----------------------------|
|------------------------------|----------------------------|
|------------------------------|----------------------------|
|--9--7------------------------|-----------------7-8-9-10-9-|
|-------10-9-7-6---------------|-------------6-9------------|
|----------------8-7-(7)-7-7-7-|-7-8-7--6--7----------------|
|
| +H Q Q Q H Q
|-(5)--------------------------|--------2-------------------|
|-(5)------------4----5--------|-4-----(4)-----------5------|
|-(5)------------4----5--------|-4-----(4)-----------5------|
|-(5)------------4----5--------|-4-----(4)-----------5------|
|-(2)------------2----2--------|-2-----(2)-----------2------|
|------------------------------|----------------------------|

|-3-| |--3---| |--3--| |-3--| |-3-| |-3--| |-3-| |-3--|


E E E E E E E E E E E E E E E E E E E E E E E E
|----------------------------------|--------------------------------|
|-----------10-11-12-13-12-11-10-9-|-8-7-------7-8-10-8-7-----------|
|-----8-11-------------------------|-----9--8-------------9-8-------|
|-8-9------------------------------|--------------------------10----|
|----------------------------------|--------------------------------|
|----------------------------------|--------------------------------|
|
| Q H Q Q H Q
|--------2------------------5------|--------2-------------5---------|
|-4-----(4)-----------------5------|-4-----(4)------------5---------|
|-4-----(4)-----------------5------|-4-----(4)------------5---------|
|-4-----(4)-----------------5------|-4-----(4)------------5---------|
|-2-----(2)-----------------2------|-2-----(2)------------2---------|
|----------------------------------|--------------------------------|

|--3--| |-3-| |3| |--3--| |-3--| |3-|

mhtml:file://F:\Musica\Tablature for Bireli Lagrene & Sylvain Luc's MADE IN FRA... 16/03/2007
Tablature for Bireli Lagrene & Sylvain Luc's MADE IN FRANCE Pagina 6 di 18

E E E E E E E Q +Q Q E E E E E E E Q
|------------------------||------------------7-8-10-|
|------------------------||-----------7-8-10--------|
|------------------------||-----8h9-----------------|
|-9--7-------------------||-------------------------|
|------10-9-7-6----------||-------------------------|
|---------------8-7-(7)--||-------------------------|
|
| H. Q Q. E H
|------------------------||-------------------------|
|-4----------------------||-------------------------|
|-4----------------------||-------------------------|
|-4----------------------||-------------------------|
|-2----------------------||-------------------------|
|------------------------||-0-------2---3-----------|

|-3-| |--3--| |-3-| |-3--| |-3-|


S S S S E E +H E S S S E E E E E E E E E Q E E Q E E E
|-8h10p8p7h8-------------|-------------------------------|-8---7---6-7--------|
|------------10-(10)-----|----8p7p6-7-8---7-6-5-----7-10-|--------------8-7---|
|------------------------|----------------------7h8------|------------------9-|
|------------------------|-------------------------------|--------------------|
|------------------------|-------------------------------|--------------------|
|------------------------|-------------------------------|--------------------|
|
| |--3--|
| Q. E Q. E Q. E H Q Q Q H
|------------------------|-------------------------------|--------------------|
|------------------------|-------------------------------|--------------------|
|------------------------|-------------------------------|--------------------|
|------------------------|-------------------------------|--------------------|
|-0-----------2---3----1-|-2------------4---6------------|-7-5---3---2--------|
|------------------------|-------------------------------|--------------------|

|-3--| |-3--| |---3---|


E E E E S S S S Q. E E E E E E E +E E E
|-------------------------|------------------12---(12)\---7---|
|----7--------------------|-------------12--------------------|
|-8----9------------------|--------9-12-----------------------|
|--------9-7h9p7-----9----|---7h10----------------------------|
|----------------10-------|-----------------------------------|
|-------------------------|-----------------------------------|
|
| |-----3------|
| Q. E E Q. H E E E E E
|-------------------------|-----------------------------------|
|--------------------3----|-----------------------------------|
|--------------------4----|-----------------------------------|
|-2------------------3----|-----------------------------------|
|-2-----------------------|-----------------------------------|
|-0--------2---4----(4)---|-5--------------7----8-------9-8-6-|

|--3--| |-3-|
E S S S E E S S S E E E
|-10--8h=10p8-7-8-7h8p7-----7-----|
|-----------------------10----10--|
|---------------------------------|
|---------------------------------|
|---------------------------------|
|---------------------------------|
|
| E Q. E Q.
|---------------------------------|
|---------------------------------|
|-----8---------------------------|
|-----7---------------------------|
|-----------------4------6--------|
|--7-(7)--------------------------|

S S S S S S S S S S S S S S E Q E E E Q E
|--------------------------------|---------------|
|-8-7-----7----------------------|-------------5-|
|-----9-8---9--------------------|--------4-2----|
|-------------9-7-5-7-9--7-------|----2-5--------|

mhtml:file://F:\Musica\Tablature for Bireli Lagrene & Sylvain Luc's MADE IN FRA... 16/03/2007
Tablature for Bireli Lagrene & Sylvain Luc's MADE IN FRANCE Pagina 7 di 18

|--------------------------7-6-4-|-3-------------|
|--------------------------------|---------------|
|
| H E Q. H H
|--------------------------------|---------------|
|--------------------------------|--------3------|
|--------------------------------|-5------2------|
|--------------------------------|-5------0------|
|-7------------------------------|---------------|
|-----------------2---4----------|-5------2------|

|--3--| |----3----|
E E Q +Q E E E E E Q +E E E E E
|-2-5-7--(7)--14p10-12-|-15-14-17---(17)-15p14-----12-11---|
|----------------------|-----------------------------------|
|----------------------|-----------------------------------|
|----------------------|-----------------------------------|
|----------------------|-----------------------------------|
|----------------------|-----------------------------------|
|
| H H Q Q Q Q
|----------------------|-----------------------------------|
|-3-------0------------|--------1---------------1----------|
|-4-------0------------|--------2---------------2----------|
|-4-------2------------|--------1---------------1----------|
|---------3------------|--------------2--------(2)---------|
|-3-------3------------|--2----(2)-------------------------|

|-3-|
E Q S S S S S S S S S S S
|-------------------------------------------|
|-13-12tr13-----------10----------7---------|
|---------------12-11----12-----7---9-7-6-5-|
|----------------------------9--------------|
|-------------------------------------------|
|-------------------------------------------|
|
| Q S S S S E Q.
|-------------------------------------------|
|-------------------------------------------|
|--4-------------------------4--------------|
|--4-------------------------2--------------|
|--2----------------------------------------|
|--0--------1h2--3--4--4----(4)-------------|

|---3----| |--3--| |-----5-----|


E E E E E E S S S S S E. S Q S Q S Q S S
|--------------------10-14h15-17-19h20--19-|-17-----19-15----17-14--14-12-|
|------------8-11h12-----------------------|------------------------------|
|----------9-------------------------------|------------------------------|
|-9h10-------------------------------------|------------------------------|
|------------------------------------------|------------------------------|
|------------------------------------------|------------------------------|
|
| E Q. H E Q. Q. E
|------------------------------------------|-------------------------3----|
|---------------------5--------------------|-----3-------------------5----|
|-------5-------------5--------------------|-----4-------------------4----|
|-------5-------------4--------------------|-----4-------------------5----|
|---------------------5--------------------|--------------3---------------|
|-5----(5)---------------------------------|--3-(3)-----------------------|

S S S S E E E E Q
|-14-12-14--15-17-15-14---12--11--|
|---------------------------------|
|---------------------------------|
|---------------------------------|
|---------------------------------|
|---------------------------------|
|
| E Q. S S Q.
|--------3------------------------|
|--------3-----------------7------|
|--------0-----------------6------|

mhtml:file://F:\Musica\Tablature for Bireli Lagrene & Sylvain Luc's MADE IN FRA... 16/03/2007
Tablature for Bireli Lagrene & Sylvain Luc's MADE IN FRANCE Pagina 8 di 18

|--------------------------5------|
|---------------------------------|
|--2----(2)-----------5-6-(6)-----|

|--3--|
S S S S S Q. S S S S S S Q. S Q S Q
|------------------------------------14-17-|-15----14-12---10-8---|
|-13-12-10---------------------13-16-------|----------------------|
|----------12-11--9---------14-------------|----------------------|
|------------------------------------------|----------------------|
|------------------------------------------|----------------------|
|------------------------------------------|----------------------|
|
| E E E Q. Q Q. E H
|------------------------------------------|----------------------|
|------------------------------------------|----------------------|
|--------------------11--------------------|--0----------4--------|
|---------------------9--------------------|--2----------3--------|
|------------------------------------------|--2-------------------|
|--7-----9-------10--11--------------------|--0----------4--------|

|--3--| |--3--| |-3--| |--3--| |--3--|


+Q S S S S S S S S S E S S E E E E E E E E E E E E
|-(8)--------------------------------------|----------------------------------|
|------12-15-12-13-15-13p12-------12-------|----------------------------------|
|---------------------------14-13----14----|----------9-----------------------|
|---------------------------------------14-|-12-10-12---10-9----------9-------|
|------------------------------------------|-----------------12-10-12---12p10-|
|------------------------------------------|----------------------------------|
|
| H H H H
|------------------------------------------|----------------------------------|
|-------------------5----------------------|--3---------------1---------------|
|--5----------------5----------------------|--5---------------2---------------|
|--5----------------4----------------------|--5---------------1---------------|
|-------------------5----------------------|----------------------------------|
|--5---------------------------------------|--5---------------2---------------|

|-3-| |-3-| |--3--|


E E E E E E E E E E. S Q E E Q e S S
|----------------------17--15-|-14--11---14---12---7--10p8----|
|-----------7-------15--------|-------------------------------|
|-------4-7------16-----------|-------------------------------|
|-5-7-5-------17--------------|-------------------------------|
|-----------------------------|-------------------------------|
|-----------------------------|-------------------------------|
|
| |---3---| |--3---|
| Q Q Q H Q E E E Q Q
|-----------------------------|-------------------------------|
|-----------------------------|--------------------3----------|
|-----------------------------|--------------------4----------|
|-2---0-----------------------|--------------------3----------|
|---------3----2--------------|-------------------------------|
|-----------------------------|--0---0-2----3--4--(4)---------|

|-3--| |--3--|
S S E S E S E E E E E E
|---7------------------------------|
|-9---10--8p=7---------------------|
|----------------9-8-7-------------|
|----------------------10--9--7----|
|-------------------------------10-|
|----------------------------------|
|
| |-3--| |--3--|
| Q +Q E Q +Q E
|----------------------------------|
|----------------------------------|
|----------------------------------|
|----------------------------------|
|----------------------------------|
|-5------(5)---5---8------(8)----8-|

mhtml:file://F:\Musica\Tablature for Bireli Lagrene & Sylvain Luc's MADE IN FRA... 16/03/2007
Tablature for Bireli Lagrene & Sylvain Luc's MADE IN FRANCE Pagina 9 di 18

|-3-|
E E E E E E E E E E E Q. E S S S
|-------------------------|---------------------||
|-------------------------|---------------------||
|-------------------------|---------------------||
|-------------------------|-------2-------------||
|-9-7---------------------|-----2---------------||
|-----10--8---7-5--3--2---|-0-3---------0-7-7-7-||
|
| |-3--| |-3--|
| Q +Q E Q +Q E H H
|-------------------------|---------------------||
|-------------------------|---------------------||
|-------------------------|---------------------||
|-------------------------|---------------------||
|-----------5-6---(6)---7-|---------------------||
|-7---(7)-----------------|-0-------------------||

|-3-| |-3-| |-3-| |-3--| |-3-| |--3--| |--3--| |-3--|


E E E E E E E E E E E E E E E E E E E E E E E E
|--------------------------|---------------------------------|
|--------------------------|----------10-11-12-13-12-11-10-9-|
|--------------------------|-----8-11------------------------|
|---------------7-8-9-10-9-|-8-9-----------------------------|
|-----------6-9------------|---------------------------------|
|-7-8-7-6-7----------------|---------------------------------|
|
| Q Q Q Q Q Q Q Q
|--------------------------|---------------------------------|
|-4-----4-----4-----4------|-4------4--------4--------5------|
|-2-----2-----2-----2------|-2------2--------2--------3------|
|-4-----4-----4-----4------|-4------4--------4--------5------|
|-2-----2-----2-----2------|-2------2--------2--------3------|
|--------------------------|---------------------------------|

|-3-| |-3-| |-3-| |-3--|


E E E E E E E E E E E E
|----------------------------|
|-8-7-----7-8-10-8-7---------|
|-----9-8------------9-8-----|
|------------------------10--|
|----------------------------|
|----------------------------|
|
| Q Q Q Q
|----------------------------|
|-4-----4------7-----7-------|
|-2-----2------5-----5-------|
|-4-----4------7-----7-------|
|-2-----2------6-----6-------|
|----------------------------|

|-3--| |-3-| |3| |-3-|


E E E E E E E Q +E S S S
|----------------------7-8-7-|
|----------------------------|
|----------------------------|
|-9-7------------------------|
|-----10-9-7-6---------------|
|--------------8-7-(7)-------|
|
| Q Q Q Q
|----------------------------|
|-7------7-----5----5--------|
|-5------5-----3----3--------|
|-7------7-----5----5--------|
|-6------6-----3----3--------|
|----------------------------|

|-3-| |-3-| |-3-| |-3-| |-3-| |-3-| |-3-| |-3--|


E E E E E E E E E E E E E E E E E E E E E E E +E
|-6-7-8-6-7-8-6-7-8-6-7-8-|-6-7-8-6-7-8-6-7-8-6-7-(7)--|
|-------------------------|----------------------------|

mhtml:file://F:\Musica\Tablature for Bireli Lagrene & Sylvain Luc's MADE IN FRA... 16/03/2007
Tablature for Bireli Lagrene & Sylvain Luc's MADE IN FRANCE Pagina 10 di 18

|-------------------------|----------------------------|
|-------------------------|----------------------------|
|-------------------------|----------------------------|
|-------------------------|----------------------------|
|
| Q H Q Q Q Q Q
|-------------------------|----------------------------|
|-4-----4-----------4-----|-4-----4-----4-----4--------|
|-2-----2-----------2-----|-2-----2-----2-----2--------|
|-4-----4-----------4-----|-4-----4-----4-----4--------|
|-2-----2-----------2-----|-2-----2-----2-----2--------|
|-------------------------|----------------------------|

|-3--| |-3--| |-3--| |-3--|


E E +E E E +E E E +E E E +E
|-8-6-(6)-8-7-(7)-8-7-(7)-8-7-(7)-|
|---------------------------------|
|---------------------------------|
|---------------------------------|
|---------------------------------|
|---------------------------------|
|
| Q Q Q Q
|---------------------------------|
|-4-------4-------4-------4-------|
|-2-------2-------2-------2-------|
|-4-------4-------4-------4-------|
|-2-------2-------2-------2-------|
|---------------------------------|

Q=130
|-3--| |-3--| |-3--|
E E +E E E +E E E +E E E Q. E S E S E S S
|-8-5-(5)-7-3-(3)-5-2-(2)-3p==2---|-0--------12-14-15---11-14-12----|
|---------------------------------|------------------------------13-|
|---------------------------------|---------------------------------|
|---------------------------------|---------------------------------|
|---------------------------------|---------------------------------|
|---------------------------------|---------------------------------|
|
| |-3--| |--3--|
| Q Q Q E E E E E S S E E E E E E
|---------------------------------|---------------------------------|
|-4-------4-----------------------|---------------------------------|
|-2-------2-----------------------|---------------------------------|
|-4-------4-----------------------|---------------------------------|
|-2-------2-----------------------|-------------------7-------------|
|----------------------3--2-3---2-|-0--2p0-3--5--7----------5--7----|

|--3--|
+S S E E S S S S S S S S S S S
|--------------14p13p12p11----------------------|
|-(13)---------------------13-12-10-------------|
|------14-11------------------------12----------|
|--------------------------------------13-12-10-|
|-----------------------------------------------|
|-----------------------------------------------|
|
| E E E E E E E E
|-----------------------------------------------|
|-----------------------------------------------|
|-----------------------------------------------|
|------------4--2--------1----------------------|
|------------------------------3-----2-----0----|
|---8------2------------------------------------|

S S S S S S S S S S S S S S S S E Q S S S S S S S S S S
|----------------------------------14-15-16-17-|-18-19---14-17-15-------14-13-12-13-14--|
|-------------------10-------------------------|----------------------------------------|
|----------------11----11-12-14-16-------------|------------------11-12-----------------|
|-9---------9-10-------------------------------|----------------------------------------|
|---12-9-10------------------------------------|----------------------------------------|
|----------------------------------------------|----------------------------------------|
|

mhtml:file://F:\Musica\Tablature for Bireli Lagrene & Sylvain Luc's MADE IN FRA... 16/03/2007
Tablature for Bireli Lagrene & Sylvain Luc's MADE IN FRANCE Pagina 11 di 18

| E E E E E E E E E E E E E E E E
|----------------------------------------------|----------------------------------------|
|----------------------------------------------|----------------------------------------|
|----------------------------------------------|----------------------------------------|
|----------------------------------------------|--1--2-1--0-----------------------------|
|-----------------------------------------2----|----------------4-----3-----2-----0-----|
|-3----2----1-----0-----2-----0-----3----------|----------------------------------------|

|---3---|
S S S S S S S S S S S S S E E
|-15-12-----------------------------------^14-^11-|
|-------13-12-----------------------------^13-^10-|
|-------------14-13----12h14p==12-11---11-^14-^11-|
|-------------------14----------------------------|
|-------------------------------------------------|
|-------------------------------------------------|
|
| E E E E E E E E
|-------------------------------------------------|
|-------------------------------------------------|
|-------------------------------------------------|
|--------------------4-------2-------1------------|
|--2-----3----------------------------------3---2-|
|--------------2----------------------------------|

|-3--| |-3-|
E S S S S S S S S S S S Q +E S S S S S S S S S S S S S E
|-^8-8h10p8-7--------------------|----------------------------10-8-7-|
|-^7----------10-8-7-----7-------|------------8-7---7h8p7-6-7--------|
|-^8-----------------9-8---8-9---|-(9)------9-----9------------------|
|--------------------------------|-----7-10--------------------------|
|--------------------------------|-----------------------------------|
|--------------------------------|-----------------------------------|
|
| E E E E E E E E E E E E E E E E
|--------------------------------|-----------------------------------|
|--------------------------------|-----------------------------------|
|--------------------------------|--------------2--------------------|
|----------------------------2---|----------2-------1----------0-----|
|--0---------------------2-----1-|--0---------------------4----------|
|----3------2----0---3-----------|-----3---------------------------3-|

|--3--| |--3--|
S S S S S S S S S S S S S S S S S S
|-------7-10-8-------------------------------------|
|------------------8-12-11-10-12-13h15p13----------|
|--7-----------8h9------------------------14p12----|
|-----9-----------------------------------------14-|
|--------------------------------------------------|
|--------------------------------------------------|
|
| +E E Q E Q E
|--------------------------------------------------|
|--------------------------------------------------|
|--------------------------------------------------|
|--------------------------------------------------|
|-------4----3-----------------------------3-------|
|-(3)-----------------3-----2----------------------|

|--3--| |-3-|
S S S S S S +Q. S S S S S S S S S S S S S S S S E S S S S
|----------------------------------------12-|-14-15-11-14-12-------------------------------|
|-------------------------------------12----|----------------13-12-------------------13-15-|
|----------------------------------12-------|----------------------14-13----12-11-14-------|
|-------------------------------14----------|----------------------------14----------------|
|-15-12-10-------------------14-------------|----------------------------------------------|
|----------12-8-7-(7)-----12----------------|----------------------------------------------|
|
| E E E E E E E E E E E E E E E E
|-------------------------------------------|----------------------------------------------|
|-------------------------------------------|----------------------------------------------|
|-------------------------------------------|----------------------------------------------|
|---------------------1-2-------------------|--------------------------1--------0----------|
|--2--------3------4-------2----------------|--------2-----0-----3-----------4-------------|

mhtml:file://F:\Musica\Tablature for Bireli Lagrene & Sylvain Luc's MADE IN FRA... 16/03/2007
Tablature for Bireli Lagrene & Sylvain Luc's MADE IN FRANCE Pagina 12 di 18

|--------------------------------3-----0----|--3--------------------------------------4----|

|-3--| |--3--| |--3--|


S S S S S S S S S S S E S S S S S S
|-14-12-------12-------0-8h10p8-7-12h13p12-11h12p11-|
|-------15-14----14-15------------------------------|
|---------------------------------------------------|
|---------------------------------------------------|
|---------------------------------------------------|
|---------------------------------------------------|
|
| E E E E E E E E
|---------------------------------------------------|
|---------------------------------------------------|
|---------------------------------------------------|
|--------5----------------------------------8-------|
|--------------4-----3------------------------------|
|--3---------------------2------3--0----------------|

|--3--| |-3--| |-3-|


S S S S S S S S S S S S S S S S S S S S S S S S S S S S S S S S S S S
|-10h11p10--9h10p9-8h9p8-7h8p7-6h==7p==6-5h6p==5---4h|=5p4---3h==4p3-2h3p2-1h2p1-0h1p0-2-3----|
|----------------------------------------------------|----------------------------------------|
|----------------------------------------------------|----------------------------------------|
|----------------------------------------------------|----------------------------------------|
|----------------------------------------------------|----------------------------------------|
|----------------------------------------------------|----------------------------------------|
|
| |---3---| |---3---| |---3---|
| E E E E E E E E E E E E E S S S S S S S S E E
|----------------------------------------------------|----------------------------------------|
|----------------------------------------------------|----------------------------------------|
|----------------------------------------------------|----------------------------------------|
|----------10------8-----7---6---5---4---3-----------|----------------------------------------|
|--7-----------------------------------------7---6---|-5---4---3---2-1-0----------------------|
|----------------------------------------------------|-------------------4-3-2-1-0-2---3------|

|---5---|
S S S S S S S S S S S S S S S S S S S S S S T T T T T T T T T E S E S
|-4-5-0-2-3-4-5-0-2-3-4-5-0-5-6-7-|-8-0-5-6-7-8-5p2-------------------------|
|---------------------------------|-----------------4-----4-----------------|
|---------------------------------|-------------------5-2---5-2-------4-----|
|---------------------------------|-----------------------------1-4---------|
|---------------------------------|-----------------------------------------|
|---------------------------------|-----------------------------------------|
|
| E E E E E E E E E E E E E E E E
|---------------------------------|-----------------------------------------|
|---------------------------------|-----------------------------------------|
|---------------------------------|-----------------------------------------|
|---------2---------------2-------|-----4---2---1---------------------------|
|-0---2-------0---2---3-----------|---------------------3---------2---------|
|-----------------------------3---|-2-------------------------------3---0---|

E S S S S S S T T T T T T T T S S E
|--------------7-10-11-12-13-14-15-17-19-14-17-15-|
|-----7-10-7-8------------------------------------|
|---8---------------------------------------------|
|-------------------------------------------------|
|-------------------------------------------------|
|-------------------------------------------------|
|
| E E E E E E E E
|-------------------------------------------------|
|-------------------------------------------------|
|-------------------------------------------------|
|-----------------1-----------2-----------4-----5-|
|--------0---2------------------------------------|
|-2-3---------------------------------------------|

|--3--|
S S S S S S S S S S E E E S S S S S S S S S S S S S S S S S
|-------14-13-12-11-10-9-8-15----------|-----------------------------------------------|

mhtml:file://F:\Musica\Tablature for Bireli Lagrene & Sylvain Luc's MADE IN FRA... 16/03/2007
Tablature for Bireli Lagrene & Sylvain Luc's MADE IN FRANCE Pagina 13 di 18

|-----------------------------12-11-10-|-----------------------------------------------|
|-11-12--------------------------------|-12h14p12-11-------------11--------------------|
|--------------------------------------|-------------14-11-12-13----10-8-9-7-----------|
|--------------------------------------|-------------------------------------10-9-7-10-|
|--------------------------------------|-----------------------------------------------|
|
| E E E E E E E E E E E E E E E E
|--------------------------------------|-----------------------------------------------|
|--------------------------------------|-----------------------------------------------|
|--------9-----------------------------|-----------------------------------------------|
|--9-----------6-----7-----------------|-----------------------------7---9-------------|
|------------------------7-------------|-----------------6-----9--------------6---7----|
|------------------------------8--5--7-|--8--------7-----------------------------------|

|-3-|
E E Q Q. S S S
|----------------------|
|----------------------|
|----------------------|
|----------------------|
|-7-6-7----------------|
|-------------7-7-7----|
|
| E E Q H
|----------------------|
|----------------------|
|----------------------|
|---6------------------|
|-7---7----------------|
|----------------------|

Q=155
|-3-| |-3-| |-3-| |-3--| |-3-| |--3--| |--3--| |-3--|
E E E E E E E E E E E E E E E E E E E E E E E E
|--------------------------|---------------------------------|
|--------------------------|----------10-11-12-13-12-11-10-9-|
|--------------------------|-----8-11------------------------|
|---------------7-8-9-10-9-|-8-9-----------------------------|
|-----------6-9------------|---------------------------------|
|-7-8-7-6-7----------------|---------------------------------|
|
| W W
|--------------------------|---------------------------------|
|-4------------------------|-4-------------------------------|
|-2------------------------|-2-------------------------------|
|-4------------------------|-4-------------------------------|
|-2------------------------|-2-------------------------------|
|--------------------------|---------------------------------|

|-3--| |-3-| |-3-| |-3--|


E E E E E E E E E E E E
|------------------------------|
|--8--7-----7-8-10-8-7---------|
|-------9-8------------9-8-----|
|--------------------------10--|
|------------------------------|
|------------------------------|
|
| +H H
|------------------------------|
|-(4)------------4-------------|
|-(2)------------2-------------|
|-(4)------------4-------------|
|-(2)------------2-------------|
|------------------------------|

|-3--| |-3-| |-3-| |-3-| |-3--| |-3--| |--3--| |--3--|


E E E E E E E E E E S S S E E E E E E E E E E E E
|----------------------------|---------------------------------|
|----------------------------|---------------10-11-12-13-10-11-|
|----------------------------|----------8-11-------------------|
|-9-7------------------9-9-9-|-9-10-8-9------------------------|
|-----10-9-7-6---------------|---------------------------------|
|--------------8-7-6-7-------|---------------------------------|

mhtml:file://F:\Musica\Tablature for Bireli Lagrene & Sylvain Luc's MADE IN FRA... 16/03/2007
Tablature for Bireli Lagrene & Sylvain Luc's MADE IN FRANCE Pagina 14 di 18

|
| |-3--| |--3--| |--3--|
| H H Q E E E E E E E E E
|----------------------------|---------------------------------|
|-4--------------------------|---------------------------------|
|-2--------------------------|-4-------------------------------|
|-4--------------------------|-4------4-4--4--4--4--4--4--4--4-|
|-2--------------------------|-2------2-2--2--2--2--2--2--2--2-|
|----------------------------|---------------------------------|

|--3--| |--3--| |--3--| |--3--|


E E E E E E E E E E E E
|-11-14-17-18-19-20-19-18-17-16-15-14-|
|-------------------------------------|
|-------------------------------------|
|-------------------------------------|
|-------------------------------------|
|-------------------------------------|
|
| |--3--| |--3--|
| E E E E E E H
|-------------------------------------|
|--------------------5----------------|
|--------------------3----------------|
|--------------------5----------------|
|--2--2--2--2--2--2--4----------------|
|-------------------------------------|

|--3--| |--3--| |--3--| |--3--| |--3--| |--3--|


E E E E E E E E E E E E E E E E E E Q. S S
|-12-11-12-14-15-17-15-14-12-11-------|-------------------------15-11-||
|-------------------------------13-12-|-------------------------------||
|-------------------------------------|-14-12-11----------------------||
|-------------------------------------|----------14-13-11-------------||
|-------------------------------------|-------------------------------||
|-------------------------------------|-------------------12\---------||
|
| H H H q. E
|-------------------------------------|-------------------------------||
|--7-----------------8----------------|-10----------------10----------||
|--5-----------------6----------------|--8-----------------8----------||
|--7-----------------8----------------|-10----------------10----------||
|--6-----------------7----------------|--9-----------------9----------||
|-------------------------------------|--------------------------0----||

|--3--| |--3--| |--3--| |--3--| |--3--| |--3---| |-3-|


E E E E E E E E E E E E Q S S S E E E E E E E
|-14-12-11-12----------------------12-|-----------------------------------|
|-------------12----------------------|-15--15h16p15-13-------------------|
|----------------12-11----11-12-13----|-----------------------------------|
|----------------------14-------------|-----------------------------------|
|-------------------------------------|-----------------------------------|
|-------------------------------------|-----------------8p7----6-7-8-6----|
|
| |--3--| |--3--| |--3--|
| Q E E E E E E E E E Q E Q Q.
|-------------------------------------|-----------------------------------|
|-------------------------------------|-----------------------------------|
|-------------------------------------|-----------------------------------|
|-------------------------------------|-----------------------------------|
|--7--------6--5--4--3----------------|--0---2--------3-------------------|
|-----------------------7--6--5--4--3-|-----------------------------------|

|-3-| |-3--| |-3-| |-3--| |-3--| |3| |--3--| |--3--|


E E E E E E E E E E E E E E E E Q S S S E E E E
|-----------------------8-10-|-8h10p8-7-7------------------15-11---|
|------------------7-10------|------------12h13p12-11---12---------|
|----------------8-----------|-------------------------------------|
|-------7-10-8-9-------------|-------------------------------------|
|---6-9----------------------|-------------------------------------|
|-7--------------------------|-------------------------------------|
|
| |-3-| |-3--| |-3-| |-3--| |-3--|
| E E E E E E E E E E E E E E E q E S Q S

mhtml:file://F:\Musica\Tablature for Bireli Lagrene & Sylvain Luc's MADE IN FRA... 16/03/2007
Tablature for Bireli Lagrene & Sylvain Luc's MADE IN FRANCE Pagina 15 di 18

|----------------------------|-------------------------------------|
|----------------------------|-------------------------------------|
|----------------------------|-------------------------------------|
|-4-1-2-4--2-1---------------|--------2----------------------------|
|--------------3-2-0---------|------2---------------2-3----------2-|
|---------------------3-2--1-|-0--3--------------------------------|

|--3--| |--3--| |--3---| |---3---| |--3--| |-3--| |---3---|


E E E E E E E E E E E E Q S S S E E E E E E E
|-14-12-11-12--------------------------12-|----------------------------------------|
|-------------12--------------------------|-15--15h16p15-13------------------------|
|----------------12--11-----11-12--13-----|----------------------------------------|
|------------------------14---------------|----------------------------------------|
|-----------------------------------------|----------------------------------------|
|-----------------------------------------|-----------------8p7--6--7---8---6------|
|
| |--3--| |--3---| |---3---| |--3--| |-3--|
| Q E E +E +E E E +E +E E Q E Q E E +E S S S S
|-----------------------------------------|----------------------------------------|
|-----------------------------------------|----------------------------------------|
|-----------------------------------------|----------------------------------------|
|--2--------1--0-(0)-(0)------------------|---------------------------4---3---2----|
|-------------------------4--3-(3)-(3)--2-|--0---2-----3---------------------------|
|-----------------------------------------|-----------------3-2-(2)----------------|

|-3-| |-3--| |-3-| |-3-| |-3-| |-3--|


E E E E E E E E E E E E E E E E E E Q. E
|---------------------------|----------------------||
|------------------7-10-8-7-|---8------------------||
|----------------8----------|-9-----9--------------||
|-------7-10-8-9------------|-----9------9---------||
|---6-9---------------------|---------10---7-------||
|-7-------------------------|----------------------||
|
| |-3-| |-3--| |-3-| |-3-| |-3--|
| E E E E E E E E E Q E E E E E E E Q E
|---------------------------|----------------------||
|---------------------------|----------------------||
|---------------------------|----------------------||
|-1-------------------------|----------2-5-5--2----||
|---3-2-0----2-0------------|-------2--------------||
|----------------3-2--0-----|-3-0-3----------------||

E E E E +E q E Q E E Q. e
|-------------------|----2---0--------0----|
|---8-7-5-(5)-7-----|-0--------3-----------|
|-----------------0-|----------------------|
|-------------------|----------------------|
|-------------------|----------------------|
|-5-----------------|----------------------|
|
| Q E Q E E E Q S S E E E E s S
|-------------------|----------------------|
|-------------------|----------------------|
|-------------------|----------------------|
|-------7-----------|--------5--------2----|
|-----7-------7-5-0-|------5---5--4-3------|
|-5-----------------|-3-----------------0--|

E E E Q E Q Q Q q Q
|----0-------------0-------|--------0-------|
|--------4-2-----4---------|-0--------------|
|--------------------------|-----1----------|
|--------------------------|----------------|
|--------------------------|----------------|
|--------------------------|----------------|
|
| |-3-|
| E. S E S S E E E S S S E E Q E E E E
|--------------------------|----------------|
|--------------------------|----------------|
|--------------------------|----------------|
|------4---2-----2p1-------|----------------|
|--------------------4-0---|------------2-0-|

mhtml:file://F:\Musica\Tablature for Bireli Lagrene & Sylvain Luc's MADE IN FRA... 16/03/2007
Tablature for Bireli Lagrene & Sylvain Luc's MADE IN FRANCE Pagina 16 di 18

|-2----------------------3-|---1-0--4-4-----|

Q E E Q E E Q Q Q e. S
|-------3---2-0--2-------|-2--0-------0-----|
|------------------------|--------3------5--|
|------------------------|------------------|
|------------------------|------------------|
|------------------------|------------------|
|------------------------|------------------|
|
| |-3-| |3| |--3--|
| E E E E Q Q E E E Q E E E E Q
|------------------------|------------------|
|------------------------|------------------|
|------------------------|------------------|
|-----0-2-4--------5---4-|------------------|
|-2-3--------------------|-4--3-5-----------|
|------------------------|--------3-0-2-----|

|--3--| |--3--| |--3--| |--3--|


E E E E E E E E E E E E E S S q Q. S S
|---------------------------------|---------------15-11-|
|-4-4---4-3-3---3-2-2---2-1-1---1-|-0-------------------|
|---------------------------------|---5-5-5-------------|
|---------------------------------|---4-4-4-------------|
|---------------------------------|---2-2-2-------------|
|---------------------------------|---------------------|
|
| E E E E E E E E E S S Q H
|---------------------------------|---------------------|
|---------------------------------|---------------------|
|---------3---5---3---2---0-------|---------------------|
|-----2-----------------------4---|-2-------------------|
|---------------------------------|---------------------|
|---------------------------------|---0-0-0-------------|

|--3--| |--3--| |--3--| |--3--| |---3---| |-3-| |-3-|


E E E E E E E E E E E E Q S S S E E E E E E E
|-14-12-11-12----------------------12-|-------------------------------|
|-------------12----------------------|-15--15h16p==15-13-------------|
|----------------12-11----11-12-13----|-------------------------------|
|----------------------14-------------|-------------------------------|
|-------------------------------------|-------------------------------|
|-------------------------------------|-------------------8p7-6-7-8-6-|
|
| |-3-|
| Q Q Q Q Q S S E Q E E E
|-------------------------------------|-------------------------------|
|-------------------------------------|-------------------------------|
|-------------------------------------|-------------------------------|
|-------------------------------------|-------------------------4-3-2-|
|-------------------------------------|-------------------------------|
|--0--------2--------3--------4-------|--5---6----7-----8-------------|

|-3-| |--3---| |-3-| |-3--| |--3--| |--3--|


E E E E E E E E E E E E E. S Q S S S E E E E
|-------------------------8-10-|-14----7---7-------------------------15-11-|
|--------------------7-10------|---------------------12h13p12-11--12-------|
|------------------8-----------|-------------------------------------------|
|-------7-10---8-9-------------|-------------------------------------------|
|---6-9------------------------|-------------------------------------------|
|-7----------------------------|-------------------------------------------|
|
| |3-|
| Q E E Q Q Q E S E S E Q.
|------------------------------|-------------------------------------------|
|------------------------------|--------------<12>-------------------------|
|------------------------------|---------<12>------------------------------|
|-1----------------------------|-------------------------------------------|
|-------2----0-----------------|-------------------1h=2--------------------|
|----------------3------2------|--0--3-------------------------------------|

|--3---| |--3--| |--3--| |--3--| |--3--| |-3-| |-3-|

mhtml:file://F:\Musica\Tablature for Bireli Lagrene & Sylvain Luc's MADE IN FRA... 16/03/2007
Tablature for Bireli Lagrene & Sylvain Luc's MADE IN FRANCE Pagina 17 di 18

E E E E E E E E E E E E Q S S S E E E E E E E
|-14--12-11---12----------------------12-|-----------------------------|
|----------------12----------------------|-15--15h16p15-13-------------|
|-------------------12-11----11-12-13----|-----------------------------|
|-------------------------14-------------|-----------------------------|
|----------------------------------------|-----------------------------|
|----------------------------------------|-----------------8p7-6-7-8-6-|
|
| |--3--| |--3--| |--3--| |-3-|
| E. S E E E E E E E E E Q E E Q E E E
|----------------------------------------|-----------------------------|
|----------------------------------------|-----------------------------|
|----------------------------------------|-----------------------------|
|-----------2p=1--0--2-----2-----2-----2-|---------------------------4-|
|-----------------------4-----3-----2----|--0---2--------3---------3---|
|----------------------------------------|-----------------2-----2-----|

|--3---| |---3----| |---3---| |--3--|


E E E E E E E E E E E E q E H +E +W
|-----------------------------------------------|------^14----(14)-|-(14)----*|
|----------------------------------7---10-8---7-|----x-^12----(12)-|-(12)----*|
|------------------------------8----------------|-9--x-^12----(12)-|-(12)----*|
|-------------7---10---8---9--------------------|----x-^12----(12)-|-(12)----*|
|-----6---9-------------------------------------|----x-------------|---------*|
|--7--------------------------------------------|------------------|---------*|
|
| |---3---| |---3---| |-3-|
| +E E E E E E E E Q E Q E H +E +W
|-----------------------------------------------|------------------|---------*|
|-----------------------------------------------|----x-------------|---------*|
|-----------------------------------------------|----x-------------|---------*|
|-(4)---2---1-----------------------------------|----x-------------|---------*|
|---------------3----2---0----------------------|----x-------------|---------*|
|----------------------------3---2---0------2---|-3------0-----(0)-|--(0)----*|

Duration Legend
---------------
W - whole; H - half; Q - quarter; E - 8th; S - 16th; T - 32nd; X - 64th; a - acciaccatura
+ - note tied to previous; . - note dotted; .. - note double dotted
Uncapitalized letters represent notes that are staccato (1/2 duration)
Irregular groupings are notated above the duration line
Duration letters will always appear directly above the note/fret number it represents the
duration for. Duration letters with no fret number below them represent rests. Multi-
bar rests are notated in the form Wxn, where n is the number of bars to rest for. Low
melody durations appear below the staff

Tablature Legend
----------------
h - hammer-on
p - pull-off
b - bend
pb - pre-bend
r - bend release (if no number after the r, then release immediately)
/\ - slide into or out of (from/to "nowhere")
s - legato slide
S - shift slide
<n> - natural harmonic
[n] - artificial harmonic
n(n) - tapped harmonic
~ - vibrato
tr - trill
T - tap
TP - trem. picking
PM - palm muting
\n/ - tremolo bar dip; n = amount to dip
\n - tremolo bar down
n/ - tremolo bar up
/n\ - tremolo bar inverted dip
= - hold bend; also acts as connecting device for hammers/pulls
<> - volume swell (louder/softer)
x - on rhythm slash represents muted slash
o - on rhythm slash represents single note slash

mhtml:file://F:\Musica\Tablature for Bireli Lagrene & Sylvain Luc's MADE IN FRA... 16/03/2007
Tablature for Bireli Lagrene & Sylvain Luc's MADE IN FRANCE Pagina 18 di 18

Misc Legend
-----------
| - bar
|| - double bar
||o - repeat start
o|| - repeat end
*| - double bar (ending)
: - bar (freetime)
$ - Segno
& - Coda
Tempo markers - <E/E./Q/Q./H/H.> = BPM(8/16=s8/s16), where s8 = swing 8ths, s16 = swing 16ths

** Generated using Power Tab Editor by Brad Larsen: The Official Power Tab Web Site

mhtml:file://F:\Musica\Tablature for Bireli Lagrene & Sylvain Luc's MADE IN FRA... 16/03/2007