You are on page 1of 8

KNIFE

Em
A
YOU TOUCHED MY LIFE
D
Bm
G
WITH THE SOFTNESS IN THE NIGHT

C#m

C
A
F#sus4
MY WISH WAS YOUR COMMAND
F#
Gm F#
Bm
UNTIL YOU'RE RUN OUT OF MY LOVE
Em
A
I'LL TELL MYSELF IN FREE

A7

D
G
GOT THE CHANCE OF LIVING JUST FOR ME
C#m
A
F#sus4
NO NEED TO HURRY HOME
F# F#sus4
F#
NOW THAT YOU'RE GONE

Gm

Refro
Bm
A
KNIFE CUTS LIKE A KNIFE
A
HOW WILL I EVER HEAL ?
D
G
I'M SO DEEPLY WONDER
F#
Bm
G
KNIFE CUTS LIKE A KNIFE
A
B
Bm
YOU CUT AWAY THE HEART OF MY LIFE ... THAT ALL
Em
A
WHEN I PRETEND
D
G
Bm
G
WEAR A SMILE TO FOOL MY DEAREST FRIEND
C
A
F#sus4
I WONDER IF THEY KNOW

C#m

F#
IT'S JUST A SHOW
Bm
Em
I'M ON STAGE

Em7/A

D
Em
D
Dm
DAY AND NIGHT I GO THROUGH MY CHARADES

D/G

Dsus4
Em
C#m
BUT HOW CAN I DISGISE
F#7
F#m
WHAT'S IN MY EYES

Refro
Bm
G
KNIFE CUTS LIKE A KNIFE
A
HOW WILL I EVER HEAL ?
D
G
I'M SO DEEPLY WONDER
Bm
G
KNIFE CUTS LIKE A KNIFE
A
A7
F#
Em
YOU CUT AWAY THE HEART OF MY LIFE ... THAT ALL
Em7
THAT'S ALL

G A D G

Bsus4
Bm Em
I TRIED AND TRIED
Gadd9
D
Dm
D
LIGHTEM UP THE PAIN A FEEL INSIDE
E
C#m
THE PAIN WAITING YOU
Fsus4
WAITING YOU
REFRAO

CIFRADA POR JORGE UMEMARU

Bm G Bm

END
+--------------------------------------------------------------------------+
| This file is the author's own work and represents their interpretation
|
| of the song. You may only use this file for private study, scholarship, |
| or research.
|
+--------------------------------------------------------------------------+
Ultimate-Guitar.Com 2013

Show/hide chords diagrams

Add more chord diagrams to the list:


Fsus4
E
Gadd9
Bsus4
Em7
F#m
F#7
Dsus4
Dm
Em7/A
B
A7
Gm
F#
F#sus4
C
C#m
G
Bm
D
A
Em

Fsus4

x
E
B
G
D
A
E

|-X-|---|---|---|---|
|-X-|---|---|---|---|
|-X-|---|-4-|---|---|
|-X-|---|-3-|---|---|
|-X-|---|---|---|---|
|-X-|---|---|---|---|

1 fr.

o
o
o
o
o
o

variations
E

x
E
B
G
D
A
E

|---|---|---|---|---|
|---|---|---|---|---|
|-1-|---|---|---|---|
|---|-3-|---|---|---|
|---|-2-|---|---|---|
|---|---|---|---|---|

o
o
o
o
o
o

variations
Gadd9

x
E
B
G
D
A
E

|---|---|-2-|---|---|
|---|---|---|---|---|
|---|---|---|---|---|
|---|---|---|---|---|
|---|---|---|---|---|
|---|---|-1-|---|---|

o
o
o
o
o
o

variations
Bsus4

x
E
B
G
D
A
E

|-X-|---|---|---|---|
|-X-|---|---|-4-|---|
|-X-|---|-3-|---|---|
|-X-|---|---|---|---|
|-X-|---|---|---|---|
|---|---|---|---|---|

o
o
o
o
o
x

2 fr.
variations
Em7

x
E
B
G
D
A
E

|---|---|---|---|---|
|---|---|---|---|---|
|---|---|---|---|---|
|---|---|---|---|---|
|---|-1-|---|---|---|
|---|---|---|---|---|

o
o
o
o
o
o

variations
F#m

x
E
B
G
D
A
E

|-X-|---|---|---|---|
|-X-|---|---|---|---|
|-X-|---|---|---|---|
|-X-|---|-4-|---|---|
|-X-|---|-3-|---|---|
|-X-|---|---|---|---|

o
o
o
o
o
o

2 fr.
variations

F#7

x
E
B
G
D
A
E

|---|---|---|---|---|
|---|-1-|---|---|---|
|---|---|-2-|---|---|
|---|---|---|-3-|---|
|---|---|---|---|---|
|---|---|---|---|---|

o
o
o
o
x
x

variations
Dsus4

x
E
B
G
D
A
E

|---|---|-X-|---|---|
|---|---|-X-|---|---|
|---|-1-|---|---|---|
|---|---|---|---|---|
|---|---|---|---|---|
|---|---|---|---|---|

o
o
o
o
x
x

variations
Dm

x
E
B
G
D
A
E

|-1-|---|---|---|---|
|---|---|-3-|---|---|
|---|-2-|---|---|---|
|---|---|---|---|---|
|---|---|---|---|---|
|---|---|---|---|---|

o
o
o
o
x
x

variations
Em7/A

x
E
B
G
D
A
E

|---|---|---|---|---|
|---|---|---|---|---|
|---|---|---|---|---|
|---|---|---|---|---|
|---|---|---|---|---|
|---|---|---|---|---|

o
o
o
o
o
x

variations
B

x
E
B
G
D
A
E

|-X-|---|---|---|---|
|-X-|---|-4-|---|---|
|-X-|---|-3-|---|---|
|-X-|---|-2-|---|---|
|-X-|---|---|---|---|
|---|---|---|---|---|

o
o
o
o
o
x

2 fr.
variations

A7

x
E
B
G
D
A
E

|---|---|---|---|---|
|---|-2-|---|---|---|
|---|---|---|---|---|
|---|-1-|---|---|---|
|---|---|---|---|---|
|---|---|---|---|---|

o
o
o
o
o
x

variations
Gm

x
E
B
G
D
A
E

|---|---|-X-|---|---|
|---|---|-X-|---|---|
|---|---|---|---|---|
|---|---|---|---|---|
|-1-|---|---|---|---|
|---|---|-4-|---|---|

o
o
o
o
o
o

variations
F#

x
E
B
G
D
A
E

|-X-|---|---|---|---|
|-X-|---|---|---|---|
|-X-|-2-|---|---|---|
|-X-|---|-4-|---|---|
|-X-|---|-3-|---|---|
|-X-|---|---|---|---|

o
o
o
o
o
o

2 fr.
variations
F#sus4

x
E
B
G
D
A
E

|-X-|---|---|---|---|
|-X-|---|---|---|---|
|-X-|---|-4-|---|---|
|-X-|---|-3-|---|---|
|-X-|---|---|---|---|
|-X-|---|---|---|---|

o
o
o
o
o
o

2 fr.
variations
C

x
E
B
G
D
A
E

|---|---|---|---|---|
|-1-|---|---|---|---|
|---|---|---|---|---|
|---|-2-|---|---|---|
|---|---|-3-|---|---|
|---|---|---|---|---|

o
o
o
o
o
x

variations

C#m

x
E
B
G
D
A
E

|---|---|---|---|---|
|---|-3-|---|---|---|
|-1-|---|---|---|---|
|---|-2-|---|---|---|
|---|---|---|-4-|---|
|---|---|---|---|---|

o
o
o
o
o
x

variations
G

x
E
B
G
D
A
E

|---|---|-3-|---|---|
|---|---|---|---|---|
|---|---|---|---|---|
|---|---|---|---|---|
|---|-1-|---|---|---|
|---|---|-2-|---|---|

o
o
o
o
o
o

variations
Bm

x
E
B
G
D
A
E

|-X-|---|---|---|---|
|-X-|-2-|---|---|---|
|-X-|---|-4-|---|---|
|-X-|---|-3-|---|---|
|-X-|---|---|---|---|
|---|---|---|---|---|

o
o
o
o
o
x

2 fr.
variations
D

x
E
B
G
D
A
E

|---|-2-|---|---|---|
|---|---|-3-|---|---|
|---|-1-|---|---|---|
|---|---|---|---|---|
|---|---|---|---|---|
|---|---|---|---|---|

o
o
o
o
x
x

variations
A

x
E
B
G
D
A
E

|---|---|---|---|---|
|---|-3-|---|---|---|
|---|-2-|---|---|---|
|---|-1-|---|---|---|
|---|---|---|---|---|
|---|---|---|---|---|

o
o
o
o
o
x

variations

Em

x
E
B
G
D
A
E

|---|---|---|---|---|
|---|---|---|---|---|
|---|---|---|---|---|
|---|-2-|---|---|---|
|---|-1-|---|---|---|
|---|---|---|---|---|

o
o
o
o
o
o

Related Interests