You are on page 1of 2

Peace Pipe

Intro
E-17-16-17--------------------------------|
B------------10-9-10----------------------|
G-----------------------------------------|
D----------------------7-6-7--------------|
A-----------------------------------------|
E-------------------------------5-4-5-----|
Part 1
E-9-12-9----12---------9-------------------------------------------------|
B--------12----10---10---10--7--10-------------(12>14)-12-----10>12-10---|
G-----------------------------------7-----9--9------------7-7------------|
D------------------------------------------------------------------------|
A------------------------------------------------------------------------|
E------------------------------------------------------------------------|
E--------------------|
B---12-10--10--------|
G-9-----------9------|
D--------------------|
A--------------------|
E--------------------|
Part 2
E------------------------------------------------|
B---10-8-10-8------------------------------------|
G-9-----------9-7----7------5-----4-4-4----------|
D-----------------10---9------7---------6--------|
A------------------------10-----8---------7------|
E------------------------------------------------|
Now play Part 1 again.
Part 3

Muted with fingertips over frets

E------------------------------------------------------------------------------|
B------------------------------------------------------------------------------|
G----18--16-14----18-16--14---18-16-14----18--16-14----18-16-13---18-16-13-14--|
D-16----------16-----------15----------15-----------14---------14--------------|
A------------------------------------------------------------------------------|
E------------------------------------------------------------------------------|
Part 4
E-----------------------------------------

B----------------------------------------G----------------------------------------D---------0---0---0---0-------0---4------A------0-------------------4-------------E----------------------------------------E--------------------------------------------------------------------------B--------------------------------------------------------------------------G--------------------------------------------------------------------------D-------------------------------------------------------------0------------A-----0---0---0---0-------0---4--------2---2---2---2---1---2------2-------0E-0-------------------4------------0----------------------------------4----Then play part 1, followed by part 3.


Outro
E---------------17-16-17------14-------------|
B-------10-9-10-----------2---14-------------|
G-------------------------2------------------|
D-7-6-7-------------------2------------------|
A-------------------------0------------------|
E--------------------------------------------|