You are on page 1of 3

Cas Haley - Walking on the Moon (Acoustic)

--------------------Verse
|| Cm C9sus4 A#* ||
|| --3-----3----1-- ||
|| --4-----3----3-- ||
|| --5-----3----3-- ||
|| --5-----3----3-- ||
|| --3-----3----1-- ||
|| --x----(6)---x-- ||
Chorus
||
G#
A#6sus4
A#
F
||
|| --4--------6--------6-----8--- ||
|| --4--------8--------6-----10-- ||
|| --5--------8--------7-----10-- ||
|| --6--------8--------8-----10-- ||
|| --6--------6--------8-----8--- ||
|| --4--------x--------6-----x--- ||
Intro
|| ------------|| ------------|| ------------|| -------2-5--|| -0b2-5-----3|| -------------

Cm

||
||
||
||
||
||

C9sus4
Yep Right! Well you know, you know!

Cm - C9sus4
C9sus4
Giant steps are what you take, Walking on the moon
Cm

C9sus4
I hope my legs don't break, Walking on the moon
Cm

C9sus4
We could walk forever, Walking on the moon
Cm

A#*
We could live together, Walking on, walking on the moon
Cm

Cm - C9sus4
C9sus4
Walking back from your house, Walking on the moon
Cm

Cm

C9sus4

Walking back from your house, Walking on the moon


C9sus4
Feet they hardly touch the ground, Walking on the moon
Cm

A#*
My feet don't hardly make no sound, Walking on, walking on the moon
Cm

A#6sus4
Some may say,
G#

G#

G#

G#

A#

I'm wishing my days away

A#6sus4
No way,

And if it's the price I must pay

A#6sus4
Some say,

Tomorrow's another day

A#

A#6sus4
You stay,

Bridge 1.
|| -x-------|| -x-------|| -3----3/5|| -x----x/x|| -1----1/3|| -x--------

||
||
||
||
||
||

Bridge 2.
|| -3-------|| -4-------|| -5----8/7|| -5----x/x|| -3----6/5|| -3--------

||
||
||
||
||
||

Cm

A#

A#

I may as well play

Bridge 1 - Cm - Bridge 2 - C9sus4 x2


C9sus4
Walking back from your house, Walking on the moon
Cm

C9sus4
Walking back from your house, Walking on the moon
Cm

C9sus4
Feet they hardly touch the ground, Walking on the moon
Cm

A#*
My feet don't hardly make no sound, Walking on, walking on the moon
Cm

A#6sus4
Some may say,
G#

G#

A#6sus4

A#

I'm wishing my days away


A#

Cm

G#

G#

Cm

No way,

And if it's the price I must pay

A#6sus4
Some say,

Tomorrow's another day

A#

A#6sus4
A#
You stay, I may as well play
- C9sus4 x2

C9sus4
Keep it up, keep it up... keep it up right now
(...)
Cm

Cm - A#* (let it ring)

Cm
Walking on the Moon

-----------------------------Tab by Jorge Chartier


Any correction or comment send it to my mail: byelendil@gmail.com
I hope you like it, i think is 99% Correct.
Thanks.