You are on page 1of 8

Trey Anastasio - Pebbles and Marbles (Acoustic)

Tuning note: Open Ebsus11 tuning - Eb Ab Eb Gb Bb Eb


Intro
eb:----9------9-------9-----9-------------10-----10-----7---|
Bb:---11-----11-------9-----9--------------7------7-----7---|
Gb:---11-----11-------9-----9----------8----------8-----8---|
Eb:-------9------9-------9-----9----------------------------|
Ab:----9--------------9-------------9---------9------9------|
Eb:---------------------------------------------------------|
eb:---6-----6-------5-----5-------------2-----2---|
Bb:---7-----7-------4-----4-------------4-----4---|
Gb:---6-----6-------5-----5----------4--------4---|
Eb:------8-----8-------6-----6----2--------2------|
Ab:---9-------------7-----------------------------|
Eb:-----------------------------------------------|
eb:---------------------------------------|
Bb:-----2----7----5----4----1----0----4---|
Gb:-----2----7----5----4----2----0----4---|
Eb:---2-----------------------------------|
Ab:----------5----3----2----0-------------|
Eb:------------------------------3----2---|
eb:---0----------------------Bb:---------------0----------Gb:---------0-----------(0)--Eb:------2-----------2-------Ab:---3--------3-------------Eb:---------------------------

4X

---|
---|
---|
---|
---|
---|

eb:---------0---3b------0---------------------------------|
Bb:-----0h3----0----0----------3------3------2------2-----|
Gb:-----------0----0-----------4--4----------2--2---------|
Eb:-----------------------0------0------0------0------0---|
Ab:-------------------------------------------------------|
Eb:---0---------------0--------0----0--------0----0-------|

eb:---------0---3b------0---------------------------------|
Bb:-----0h3----0----0----------3------3------2------2-----|
Gb:-----------0----0-----------4--4----------2--2---------|
Eb:-----------------------0------0------0------0------0---|
Ab:-------------------------------------------------------|
Eb:---0---------------0--------0----0--------0----0-------|
eb:---------0---3b------0---------------------------------|
Bb:-----0h3----0----0----------3------3------2------2-----|
Gb:-----------0----0-----------4--4----------2--2---------|
Eb:-----------------------0------0------0------0------0---|
Ab:---0---------------0--------0----0--------0----0-------|
Eb:-------------------------------------------------------|
eb:-------------------------------------0---0--------|
Bb:---5------5------2------2-------------0-------0---|
Gb:---4--4----------2--2----------0h1-----0----1-----|
Eb:-----0------0------0------0--------0--------0-----|
Ab:--------------------------------------------------|
Eb:---0----0--------0----0--------0---------0--------|
eb:---------0---3b------0---------------------------------|
Bb:-----0h3----0----0----------3------3------2------2-----|
Gb:-----------0----0-----------4--4----------2--2---------|
Eb:-----------------------0------0------0------0------0---|
Ab:---2---------------2--------2----2--------2----2-------|
Eb:-------------------------------------------------------|
eb:---------0---3b------0---------------------------------|
Bb:-----0h3----0----0----------3------3------2------2-----|
Gb:-----------0----0-----------4--4----------2--2---------|
Eb:-----------------------0------0------0------0------0---|
Ab:-------------------------------------------------------|
Eb:---3---------------3--------3----3--------3----3-------|
eb:---------0---3b------0---------------------------------|
Bb:-----0h3----0----0----------3------3------2------2-----|
Gb:-----------0----0-----------4--4----------2--2---------|
Eb:-----------------------0------0------0------0------0---|
Ab:-------------------------------------------------------|
Eb:---2---------------2--------2----2--------2----2-------|

eb:-------------------------------------0---0--------|
Bb:---5------5------2------2-------------0-------0---|
Gb:---4--4----------2--2----------0h1-----0----1-----|
Eb:-----0------0------0------0--------0--------0-----|
Ab:--------------------------------------------------|
Eb:---0----0--------0----0--------0---------0--------|
eb:--------------------------------------------------------|
Bb:---0----5----7-------7------5/7----5------0-------0-----|
Gb:---1----4----7---7----------4/6----4------1---1---------|
Eb:-----0----0----0-------0--------0----0------0-------0---|
Ab:--------------------------------------------------------|
Eb:---0----0----0-----0--------0------0------0-----0-------|
eb:--------------------------------------------------------|
Bb:---0----5----9-------9------5/7----5------0-------0-----|
Gb:---1----4----9---9----------4/6----4------1---1---------|
Eb:-----0----0----0-------0--------0----0------0-------0---|
Ab:--------------------------------------------------------|
Eb:---0----0----0-----0--------0------0------0-----0-------|
eb:---------------7--------------7-------------|
Bb:---0----5--------------9--------------9-----|
Gb:---1----4----------7--------------7---------|
Eb:-----0----0------9-------9------9-------9---|
Ab:---------------7-----7--------7-----7-------|
Eb:---0----0-----------------------------------|
eb:---5--------------5---------------8----7---5---7-----|
Bb:-----------5--------------5------10---10---5---5-----|
Gb:-------6--------------6-----------9----9---5---5-----|
Eb:-----5-------5------5-------5-------0----0---0---0---|
Ab:-----------------------------------------------------|
Eb:---5-----5--------5-----5----------------------------|
eb:---4--------------4-------------|
Bb:-----------5--------------5-----|
Gb:-------4--------------4---------|
Eb:-----6-------6------6-------6---|
Ab:---7-----7--------7-----7-------|
Eb:--------------------------------|

eb:---4--------------4-------------|
Bb:-----------5--------------5-----|
Gb:-------4--------------4---------|
Eb:-----6-------6------6-------6---|
Ab:--------------------------------|
Eb:---7-----7--------7-----7-------|
eb:---4--------------4-------------|
Bb:-----------4--------------4-----|
Gb:-------4--------------4---------|
Eb:-----5-------5------5-------5---|
Ab:--------------------------------|
Eb:---7-----7--------7-----7-------|
eb:---4--------------4-----------|
Bb:-----------4--------------7---|
Gb:-------4--------------4-------|
Eb:-----4-------4------4---------|
Ab:------------------------------|
Eb:---4-----4--------4-----4-----|
eb:---0--------------0-2----4-7---7---5---------|
Bb:-----------2-------------5-----7---5---------|
Gb:-------2-----------------4-----7---6---------|
Eb:-----0-------0-----------0---0---0---0-0-0---|
Ab:---0-----0--------0--------------------------|
Eb:---------------------------------------------|
eb:---5---4---2---5------4------4------4------4-----|
Bb:---7---7---2---2------5------5------5------4-----|
Gb:---6---6---2---2------6------6------6------4-----|
Eb:-----0---0---0---0----7-7----6-6----5-5----4-4---|
Ab:-------------------------------------------------|
Eb:-------------------------------------------------|
eb:---0----------------------Bb:---------------0----------Gb:---------0-----------(0)--Eb:------2-----------2-------Ab:---3--------3-------------Eb:---------------------------

4X

---|
---|
---|
---|
---|
---|

eb:---------0---3b------0---------------------------------|
Bb:-----0h3----0----0----------3------3------2------2-----|
Gb:-----------0----0-----------4--4----------2--2---------|
Eb:-----------------------0------0------0------0------0---|
Ab:-------------------------------------------------------|
Eb:---0---------------0--------0----0--------0----0-------|
eb:----0---0-------Bb:---(0)-----0----Gb:-------9--------Eb:----------------Ab:-------------7--Eb:----0------------

4X

---|
---|
---|
---|
---|
---|

Verse
eb:---0---0--------0---0-------|
Bb:---------0------------0-----|
Gb:-----9------------9---------|
Eb:----------------------------|
Ab:-----------7------------7---|
Eb:---0------------0-----------|
eb:--------------------------------------------|
Bb:---12----------12-------12----------12------|
Gb:---------12-------------------12------------|
Eb:------12----------12-------12----------12---|
Ab:---10-------10----------10-------10---------|
Eb:--------------------------------------------|
eb:---8--------8-------8--------8------|
Bb:------------------------------------|
Gb:--------9----------------9----------|
Eb:-----10-------10------10-------10---|
Ab:------------------------------------|
Eb:---8------8---------8------8--------|

eb:---------0---3b------0---------------------------------|
Bb:-----0h3----0----0----------3------3------2------2-----|
Gb:-----------0----0-----------4--4----------2--2---------|
Eb:-----------------------0------0------0------0------0---|
Ab:-------------------------------------------------------|
Eb:---0---------------0--------0----0--------0----0-------|
eb:---0---0--------0---0-------|
Bb:---------0------------0-----|
Gb:-----9------------9---------|
Eb:----------------------------|
Ab:-----------7------------7---|
Eb:---0------------0-----------|
eb:---10-------------------10------------------|
Bb:---------------10-------------------10------|
Gb:---------11-------------------11------------|
Eb:------10----------10-------10----------10---|
Ab:--------------------------------------------|
Eb:---10-------10----------10-------10---------|
eb:--------------------------------------------|
Bb:---12----------12-------12----------12------|
Gb:---------12-------------------12------------|
Eb:------12----------12-------12----------12---|
Ab:---10-------10----------10-------10---------|
Eb:--------------------------------------------|
eb:----9-----------------|
Bb:---10-----------------|
Gb:----9-----------------|
Eb:----0-0-0-0-0-0-0-0---|
Ab:----------------------|
Eb:----------------------|

Pre-Chorus (1st time)


eb:----9-------7-------7-------5--------Bb:---10-------8-------8-------7--------Gb:----9-------9-------7-------7--------Eb:----0-0-0-0-0-0-0-0-0-0-0-0-0-0-0-0--Ab:-------------------------------------Eb:--------------------------------------

2X

---|
---|
---|
---|
---|
---|

Pre-Chorus (2nd time)


eb:----9-------7-------7-------5---------|
Bb:---10-------8-------8-------7---------|
Gb:----9-------9-------7-------7---------|
Eb:----0-0-0-0-0-0-0-0-0-0-0-0-0-0-0-0---|
Ab:--------------------------------------|
Eb:--------------------------------------|
eb:----9-------7-------7-------5-------7-------5---------|
Bb:---10-------8-------8-------7-------8-------7---------|
Gb:----9-------9-------7-------7-------7-------7---------|
Eb:----0-0-0-0-0-0-0-0-0-0-0-0-0-0-0-0-0-0-0-0-0-0-0-0---|
Ab:------------------------------------------------------|
Eb:------------------------------------------------------|
Chorus (1st time)
eb:---5----5----3----2--Bb:---5----3----3----3--Gb:---6----4----4----2--Eb:---0----0----0----0--Ab:---------------------Eb:----------------------

2X

---0---|
---0---|
---0---|
---2---|
---3---|
-------|

Chorus (2nd time)


eb:---5----5----3----2--Bb:---5----3----3----3--Gb:---6----4----4----2--Eb:---0----0----0----0--Ab:---------------------Eb:----------------------

2X

---3---|
---3---|
---4---|
---0---|
-------|
-------|

eb:---0----0----0--------Bb:---2----0----3----3---Gb:---2----0----0----2---Eb:---0----2----0----2---Ab:---0----2----2----0---Eb:--------0----3--------Outro
eb:---0-----0----0--------|
Bb:---8-----8----8----7---|
Gb:---7-----7----7----7---|
Eb:---9----10----9----5---|
Ab:---0-----0----0----0---|
Eb:-----------------------|
Final Chord
eb:---0---|
Bb:---2---|
Gb:---2---|
Eb:---0---|
Ab:---0---|
Eb:-------|

---0-----0-----0-----2-----3---------

---0---|
---0---|
---9---|
---0---|
---7---|
---0---|