Long Haired Country Boy

INTRO:
e |-----2-----2--------------------------------------------2-----2--|
B |-----3-----3--------------------------------------------3-----3--|
G |-----2-----2----------------5-0-2-----------------------2-----2--|
D |--0--0--0--0-----0---3b-0---------0-5-0-3-0------0h3-0--0-----0--|
A |-------------0h2---2-------------------------0h2-----------0-----|
E |-----------------------------------------------------------------|
D 8x| G 2x | D 2x | A

| C G/B A G F | D

| G

| D

VERSE 1:
D
People say I'm no-good, and crazy as a loon
I get stoned in the morning, I get drunk in the afternoon
Kinda like my old blue tick hound, I like to lay around in the shade
I ain't got no money, but I damn sure got it made
G
D
I ain't askin nobody for nothin, if I can't get it on my own
A
If you don't like the way I'm livin, you just
e
B
G
D
A
E

|------------|-------------|-------------|----------2-----2--|
|------------|-------------|-------------|----------3-----3--|
|------------|-------------|-------------|----------2-----2--|
|------------|-------------|-------------|-------0--0-----0--|
|--3---------|--2-------0--|-------------|-------------0-----|
|------------|-------------|--3-------1--|-------------------|
leave this long-haired
country boy
alone

e |--------------------------------------------2-----2--|
B |--------------------------------------------3-----3--|
G |----------------5-0-2-----------------------2-----2--|
D |-----0---3b-0---------0-5-0-3-0------0h3-0--0-----0--|
A |-0h2---2-------------------------0h2-----------0-----|
E |-----------------------------------------------------|
VERSE 2:
D
Preacher man talkin on the TV, puttin down the rock n roll
Wants me to send a donation, cause he's worried about my soul
He said, Jesus walked on the water, and I know that is true
[ Tab from: http://www.guitaretab.com/c/charlie-daniels/164169.html ]
But sometimes I think that preacher man, like to do a little walkin too
G
D
But I ain't askin nobody for nothin, if I can't get it on my own
A
You don't like the way I'm livin, you just

and a politician wants a vote I don't want much of nothin at all. but I will take another toke G D I ain't askin nobody for nothin. if I can't get it on my own A You don't like the way I'm livin. you just e B G D A E |------------|-------------|-------------|----------2-----2--| |------------|-------------|-------------|----------3-----3--| |------------|-------------|-------------|----------2-----2--| |------------|-------------|-------------|-------0--0-----0--| |--3---------|--2-------0--|-------------|-------------0-----| |------------|-------------|--3-------1--|-------------------| leave this long-haired country boy alone e B G D A E |--------------------------------------------2-----2--| |--------------------------------------------3-----3--| |----------------5-0-2-----------------------2-----2--| |-----0---3b-0---------0-5-0-3-0------0h3-0--0-----0--| |-0h2---2-------------------------0h2-----------0-----| |-----------------------------------------------------| .e B G D A E |------------|-------------|-------------|----------2-----2--| |------------|-------------|-------------|----------3-----3--| |------------|-------------|-------------|----------2-----2--| |------------|-------------|-------------|-------0--0-----0--| |--3---------|--2-------0--|-------------|-------------0-----| |------------|-------------|--3-------1--|-------------------| leave this long-haired country boy alone e B G D A E |--------------------------------------------2-----2--| |--------------------------------------------3-----3--| |----------------5-0-2-----------------------2-----2--| |-----0---3b-0---------0-5-0-3-0------0h3-0--0-----0--| |-0h2---2-------------------------0h2-----------0-----| |-----------------------------------------------------| (Instrumental Break) VERSE 3: D A poor girl wants to marry. and a rich girl wants to flirt A rich man goes to college and a poor man goes to work A drunkard wants another drink of wine.