You are on page 1of 77

GCD

Dooba dooba rehta hoon aankhon me teri

GCD
Deewana ban gaya hoon main chaahat me teri

Am Bm
Ab din guzarte nahin

Am Bm
Ratein kat-ti nahin

Am Bm Am Bm G
Teri tasvir se baat ban-ti nahin... Aa-ja

G, C, Am, G

G
Koi jaane na
Pehchaane na

Am D
Yeh hua kaise

CD
Tum aagaye kwabon mein aise

Am Bm Am Bm
Bewafa... sun oh bewafa... na jaa

Dooba dooba rehta hoon aankhon me teri

Tum jo mil gaye


Deeye jal gaye
Mere khwabon mein
Ban jao tum mere hamsafar
Bewafa ... sun oh bewafa ... bewafa... na jaa

Dooba dooba rehta hoon aankhon me teri


Deewana ban gaya hoon main chaahat me teri

Ab din guzarte nahin


Raaten kat-ti nahin
Teri tasvir se bat banti nahin... oh aa-ja
Na ja bewafa
Oh bewafa... sun oh bewafa... na jaa

Bheege Honth tere..from Murder..


Hey buddy I had posted the chords b4,now i hav made corrections.
And I think this one is flawless if u get strumming well.Sing along Mp3.
GR8 song.It will take time for me to take out TABS.If u try u can get 'em easily using chords.The TABS
posted by Ansh are not proper.

Tuning scale(E)

Bheege hoth tere pyasa dil mera


D-------C----D------C-------D
lage abr saa..aaa muze tan tera
D----C----D--G--D-----C----D

(Second line is same only i dont remember lyrics)

Kabhi mere saaa..aath koi raat gujaaa..aar


Em---------D------C--Em-------C------D
tuze subaha tak maaaai karu pyaa..aaar
Em---------D----C---G-Em--D-----C

The HO HO goes like


(D-------C----D------C-------D)
(D----C----D--G--D-----C----D)

1
hey bro here are the tabs for beege hote tere
some posted similar tabs before i just made corrections... but i m pretty sure that they are accurate this
time try it out and let me know

e---------------------------------------------
B--7-7-5-5----------------7-7-5---5----------
G----------7-7-----------------------7-7-----
D---------------------------------------------
A---------------------------------------------
E---------------------------------------------
Bheege hote tere............pyasa dil mera

e---------------------------------------------
B--7-7---7--5---7/8--------7-7-5-5-5--------
G------7------------------------------7-7----
D---------------------------------------------
A---------------------------------------------
E---------------------------------------------
Lage abre sa..aaaaa(play slide for aaa)....mujhe tan tera

e---------------------------------------------
B--7-7-5-5--5--------------7-7-5---5----------
G--------------7---------------------7-7----
D---------------------------------------------
A---------------------------------------------
E---------------------------------------------
Cham ke barsaye...............mujhe per ghatayee

e---------------------------------------------
B--7-7---7--5---7/8--------7-7-5-5-----------
G------7------------------------------7-7----
D---------------------------------------------
A---------------------------------------------
E---------------------------------------------
Tuhi meri pyaas...............tuhi mera jahaan

e---------------------------------------------
B------------7-5---------------5--3-----------
G--4-4--6-7-----------4-4-6-6----------------
D---------------------------------------------
A---------------------------------------------
E---------------------------------------------
kabhi mere saath.....koi raat guzaar

e---------------------------------------------
B-------------7-5----7/8----7-7--------------
G---4-4-6-7---------------------7------------
D---------------------------------------------
A---------------------------------------------
E---------------------------------------------
tujhe suha tak mein....aee, karu pyaar

e---------------------------------------------
B---7----7--5-----7--7--5-------7-7-5----7/8--7--7-5---------
G-------------7------------7-----------7---------------7---
D---------------------------------------------
A---------------------------------------------
E---------------------------------------------
o ooooh............o...ooooh........o..oooh...ooh... ..o.. ooooh

that's it for now.....

2
Em.........D
Jaadu teri nazar
D...........Em
Khusbu Tera Badan
Em.........D
Jaadu teri nazar
D...........Em
Khusbu Tera Badan

Em......D.........Em
Tu haan kar ya naa kar
Em......D.........Em
Tu haan kar ya naa kar
Am...........Em
Tu Hai Meri Kiran
Am..........Em
Tu Hai Meri Kiran

INTERLUDE

Chords
Em...........D
G............D
Am...........D
G............Em

TABS [interlude]
-------------------------------------------------------------------------------------------------
-------------------------------------------------------------------------------------------------
4--2--4--2--2--0-----2-----------------------0--2-------------------------------------------------
---------------------4------0--2--2--2--2--4------------------------------------------------------
-------------------------------------------------------------------------------------------------
-------------------------------------------------------------------------------------------------

-------------------------------------------------------------------------------------------------
-------------------------------------------------------------------------------------------------
7--5--7--5--5--4--2--5--4--2--0--0--0--2--3--3-----------------------------------------------
-------------------------------------------------------------------------------------------------
-------------------------------------------------------------------------------------------------
-------------------------------------------------------------------------------------------------

G................C....Am
Faasle Aur Kum Ho Rahe Hain
Am..............C......G
Durse Paas Hum Ho Rahe Hain

[NOT SURE OF THIS PART]


Dm??..................C
tu kisi Aur Ki Ho Na Jaana
Dm...........Am...........Em
Kuch Bhi Kar Jaunga mein deewana

Em......D.........Em
Tu haan kar ya naa kar
Em......D.........Em
Tu haan kar ya naa kar
Am...........Em
Tu Hai Meri Kiran
Am..........Em
Tu Hai Meri Kiran
__________________
Aaj, aaj ek hansee aur baant lo ,
Aaj, aaj ek dua aur maang lo
Aaj, ek aansu aur pi lo
Kya pata, kal ho naa ho
3
Bas ek sanam chahiye...Aashiqui
Here are chords and intro for the song,if u want i'll post all the tabs.
GR8 song njoy! post replies n comment plz.

Intro tabs:

E-----------------------------------------------------
B-----------------------------------------------------
--4-2-4-2-0-0-0-2/4-4/5-4-2-2-2-0-2-0-----------------
----------------------------------------3---------------
------------------------------------------------------
------------------------------------------------------

E-----------------------------------------------------
B-----------------------------------------------------
--2-0-2-0-3-3-3-0/2-4-2-4-4-0-0-----------------------
------------------------------------------------------
------------------------------------------------------
------------------------------------------------------

Ho Ho Ho Ho HO Ho HO
G------------------F
Ho Ho Ho Ho HO Ho HO
F------------------G

E--3-3-3---3-1-1-1---5-5-5-1-5-3-3-3------------------
B--------3--------------------------------------------

Saso ki jarurat hai jaise


G-------------------F
Saso ki jarurat hai jaise
G-------------------F
jindagi ke liye
-----Bb-------F
Bas ek sanam chahiyee-ee-ee
C------------------G--F---C
aashiki ke liye
-----F---------G

manjile hasil hai fir bhi ek duri hai


G----------------F-----------G----
bina hum rahi ke jindagi adhuri hai
G--------------F----------G------
milegi kahi koi reh gujar
C--------F--G----------C
tanha katega kaise ye safar
C-------F----G----------C
mere sapane ho jawa dhoondu mein aisi nazar
F--------Dm------C---G------------------C

chand ki jarurat hai jaise chandani ke liye


G----------------------F--------Bb--------F
Bas ek sanam chahiyee-ee-ee
C------------------G--F---C

4
The whole tabs.....
INTRO:

E-----------------------------------------------------
B-----------------------------------------------------
--4-2-4-2-0-0-0-2/4-4/5-4-2-2-2-0-2-0-----------------
--------------------------------------3---------------
------------------------------------------------------
------------------------------------------------------

E-----------------------------------------------------
B-----------------------------------------------------
--2-0-2-0-3-3-3-0/2-4-2-4-4-0-0-----------------------
------------------------------------------------------
------------------------------------------------------
------------------------------------------------------

Ho Ho Ho Ho HO Ho HO
Gstring----4-4-2-2-5-5-4-4-2-2-0-0--2-----------------
Ho Ho Ho Ho HO Ho HO
G----------2-2-0-0-4-4-2-2-0-0-----2------------------
D------------------------------3-3--------------------

E--3-3-3---3-1-1-1---5-5-5-1-5-3-3-3------------------
B--------3--------------------------------------------

Saso ki jarurat hai jaise


G--0-0-0-0-0-2-0-----------------
D----------------3-3-----

Saso ki jarurat hai jaise


G--0-0-0-0-0-2/4-2---0---------------------
D------------------3---3-----------

jindagi ke liye
G-----3-3-2-2---------
D-0-3---------------

Bas ek sanam chahiyee-ee-ee


B--1-1-1-1-1-3-1-0-------------------------
G------------------2-0---------------

aashiki ke liye
G------2-2-0-0----2-2/4-2/4-2-2/4-0----------------
D--0-3------------------------------3------------------

manjile hasil hai fir bhi ek duri hai


G--4-2-4-2-0-2/4-2-4-2-4-2-0-0-0------------------------------------

bina hum rahi ke jindagi adhuri hai


G--4-2-4-2-0-2/4-2-4-2-4-2-0-0-0------------------------------------

milegi kahi koi reh gujar


B--3-3-1/3-1-0----------------------------------------------------
G--------------0-0---0----------------------------------------
D------------------3---3-2------------------------------------

tanha katega kaise ye safar


B--3-3-1/3-1-0----------------------------------------------------
G--------------0-0---0----------------------------------------

5
D------------------3---3-2------------------------------------

mere sapane ho jawa dhoondu mein aisi nazar


B--5-5-5-3/5-3-0-1---------1/3-3-0-1--------------------------------------------
G------------------0-4-4-4-------------------------------------------

chand ki jarurat hai jaise chandani ke liye


G----------------------F--------Bb--------F
Bas ek sanam chahiyee-ee-ee
C------------------G--F---C

Ho gayi hai mohabbat chords


its a terrific song to sing. hope my chords work

Em.......C........D.......Em
ho gayi hai mohabbat tumse
Em...........................C
aye palko mein khwab ban ke
D...........................Am
rehgaye sar aankhon par
Em..................C
bade hai ehsaan hum pe
D...................Am
dil mein kiya jo basar
C
ho ooooo

[same pattern]
mil gayi hai amanat tumse
ho gayi hai mohabbat tumse

rakhe sari jahan ki khusiyan


tumhare kadamo par
dekhe na mudke duniya
awaaz de do agar
hoooo
le rahe hai izazat tum se
ho gayi hai mohabbat tumse

hale dil apna sunake dekhe hua kya asar


naraz humse na hona bahon mein lelu agar
hoooooo
itni sio hai inayat tumse
ho gayi hai mohabbat tumse

Em.......................C..........D
tumse hamesha mein pyar karunga
Em........................C.......D
siva tumhare koi naam na luunga
Em........................C.......D
tumse hamesha mein pyar karunga
Em.......................C........D
siva tumhare koi naam na luunga

F#m.......D.............E.......F#m
i WIll always love you all my life
F#m.......D.............E.......F#m
keh rahe hai haqiqat tumse
F#m.......D.............E.......F#m
i will always love you all my life
F#m.......D.............E.......F#m
zindagi hai zannat tumse
F#m.......D.............E.......F#m
i will alyas love you all my life
F#m.......D.............E.......F#m
keh rahe hai haqiqat tumse
__________________
Aaj, aaj ek hansee aur baant lo ,
Aaj, aaj ek dua aur maang lo
Aaj, ek aansu aur pi lo
Kya pata, kal ho naa ho

6
Em G D D7
Jaanam Dekh Lo Mit Gayi Dooriyan

Em D C Em
Main Yahaan Hoon, Yahaan Hoon, Yahaan Hoon, Yahaan..
Em G D D7
Kaisi Sarhadein, Kaisi Majbooriyan
Em D C Em
Main Yahaan Hoon, Yahaan Hoon, Yahaan Hoon... Yahaan

Em C G
Tum Chhupa Na Sakogi Main Woh Raaz Hoon
D Bm D Em
Tum Bhula Na Sakogi Woh Andaaz Hoon
Em C G
Gunjtaa Hoon Jo Dil Mein To Hairaan Ho Kyon
D Bm D Em
Main Tumhare Hi Dil Ki To Aawaz Hoon

Em G D D7
Sun Sako To Suno Dhadkanon Ki Zaban
Em E C Em
Main Yahaan Hoon, Yahaan Hoon, Yahaan Hoon, Yahaan

7
HOTEL CALIFORNIA

[Bm]On a dark desert highway, [F#]cool wind in my hair


[A]Warm smell of colitas, [E]rising through the air
[G]Up ahead in the distance, [D]I saw a shimering light
[Em]My head grew heavy and my sight grew dim, [F#]I had to stop for the night

[Bm]There she stood in the doorway, [F#]I heard the mission bell
[A]And I was thinking to myself: this could be [E]heaven or this could be hell
[G]Then she lit up a candle [D]and she showed me the way
[Em]There were voices down the corridor; [F#]I thought I heard them say:

{start_of_chorus}
"[G]Welcome to the Hotel Califor[D]nia
[F#]Such a lovely place (such a lovely place), such a [Bm]lovely face
[G]Plenty of room at the Hotel Califor[D]nia
Any [Em]time of year (any time of year), you can [F#]find it here"
{end_of_chorus}

[Bm]Her mind is Tiffany twisted, [F#]she got the Mercedes Benz


[A]She got a lot of pretty, pretty boys, [E]that she calls friends
[G]How they dance in the courtyard, [D]sweet summer sweat
[Em]Some dance to remember, [F#]some dance to forget

[Bm]So I called up the captain, "[F#]Please bring me my wine", He said


[A]"We haven't had that spirit here since [E]nineteen sixty-nine"
[G]And still those voices are calling from [D]far away
[Em]Wake you up in the middle of the night, [F#]just to hear them say:

"[G]Welcome to the Hotel Califor[D]nia


[F#]Such a lovely place (such a lovely place), such a [Bm]lovely face
They [G]livin' it up at the Hotel Califor[D]nia
What a [Em]nice surprise (what a nice surprise), bring your [F#]alibis"

[Bm]Mirrors on the ceiling, [F#]the pink champagne on ice, and she said
"[A]We are all just prisoners here, [E]of our own device"
[G]And in the master's chambers, [D]they gathered for the feast
[Em]They stab it with their steely knives but they [F#]just can't kill the beast

[Bm]Last thing I remember, I was [F#]running for the door


[A]I had to find the passage back to the [E]place I was before
[G]"Relax," said the night man, "We are [D]programmed to receive
[Em]You can check out any time you like, but [F#]you can never leave"

8
SUMMER OF 69-BRYAN ADAMS

Intro: D* A* D* A*

D* A*
i got my first real six string - brought it at the five & dime
D* A*
played it til my fingers bled - was the summer of '69
D* A*
me and some guys from school had a band and we tried real hard
D* A*
jimmy quit and jody got married - shoulda known we'd never get far
Bm A D G
oh when i look back now - that summer seemed to last for ever
Bm A D G
and if i had the choice - ya i'd always wanna be there
Bm A D* A*
those were the best days of my life
D* A*
ain't no use complaining - when ya gotta job to do
D* A*
spent my evenings down at the drive in - and that's when i met you - ya
Bm A D G
standing on your mamma's porch - you told me that you'd wait forever
Bm A D G
and when i held your hand - i knew that it was now or never
Bm A D* A* D* A*
those were the best days of my life - back in the summer of '69
F Bb
man we were killin' time
C Bb
we were young and reckless - we needed to unwind
F Bb C
i guess nothing can last forever...
D* A* D* A*
D*
and now the times are changin'
A*
look at everything that's come and gone
D*
sometimes when i play my old six string
A*
i think about you wonder what went wrong
Bm A D G
standing on your manna's porch - you told me it'd last forever
Bm A D G
and when i held your hand - i knew that it was now or never
Bm A D* A* D* A*
those were the best days of my life - back in the summer of '69
continue on D* A*
__________________
I am Ok.

9
G#m.................
Wo Lamhe, wo baatein,
.......f#...
Koi na jaane,
f#(or G#m).......
Thi kaisi raatein,
......E.........
Hooo, barsaatein,
................f#....
Wo bheegi bheegi yaadein,
Wo bheegi bheegi yaadein...
G#m.............
Na main jaanoun,
.....f#
Na tu jaane,
(aaah)
.............G#m................
Kaisa hai ye mausam,
.......F#..........
Koi na jaane,
...........B..........
se hai fizaa aayi,
..............F#.........
Ghamon ki dhoop sang laayi,
............E...
Khafaa hogaye hum,
..........F#
Judaa hogaye hum,
(same as above)
Wo Lamhe, wo baatein,
Koi na jaane,
Thi kaisi raatein,
Hooo, barsaatein,
Wo bheegi bheegi yaadein,
Wo bheegi bheegi yaadein...

(hoooo...)
G#m
Saagar ki,
G#m
Gehraayi se,
...F#
Gehra hai,
Apna pyaar,
....E
Sehraoun ki,
....E
In hawaon me,
......F#.............
Kaise aayeee-gi bahaar,
...............B.......
Kahan se ye hawa aayi,
................F#.........

10
Ghataayen kaali kyoun chhaayi,
.......E........
Khafaa hogaye hum,
.......F#.......
Judaa hogaye hum,

Wo Lamhe, wo baatein,
Koi na jaane,
Thi kaisi raatein,
Hooo, barsaatein,
Wo bheegi bheegi yaadein,
Wo bheegi bheegi yaadein...

(hooooo hooooooo)
(hoooo hoooo, hoo hooo, hooo ho, ho ho ho)
(hooooooooooooooo)
(aaaaaaah)

.........G.........................C..............
Pyaar humko bhi hai, pyar tumko bhi hai,
.........G...........D.........C
To ye kya silsi--le ho gaye. x2 (the same way)
......G..............D.................C.......... ............G.......D........C
Chalteeeee chalteeeeee kaise yeh faasle ho ga-yee---eee---eee
C............G.................C
Hmmmmm hoooooo, kya pata
...G.............C
Kaha hum chale

11
ADGD
Even in my heart I feel you're not being true to me
ADGD
deep within my soul I see , nothing's like it used to be
AD
Sometime's I wish I could turn back time
GD
Impossible as it may seem
A
but I wish I could
DG
so bad , baby

CHORUS:
A
Quit playing with my heart ( quit palying games with my heart...)
D
with my heart ( before you tear as apart )
G
with my heart ( quit playing games with my heart...)
A
with my heart
A
Is should have knowm from the start....

( you just continue this one till the bridge )

Bm G D Bm
Baby , baby , the love that we had was so strong
GD
can't keep on hanging on forever
Bm G D
oh baby baby , this is not right
GD
let's stop this tonight

repeat intro

12
The song is based on a Dm C Bb A progression
Dm
Dum maro Dum
Dm
Mit jaye gum
C
bolo subho shaam
Dm
hare krishna hare raam

Dm .....................C
Duniya ne humko diya kya
C.......................Bb
duniya se hamne liya kya
Bb.......................A
hum sabki parwa kare kyun
A....................Dm
sabne hamara kiya kya

Dm C Bb A
AaaaaaaAaAaaaaaaaaaa...

13
th song starts with 2 bangs

The B chord and the E chord

then the lead played as in TABS given below


(note a tricky start the first few notes are in HALF scale higher)

E-----------------------------------------------
B-----------------------------------------------
G-----------------------------------------------
D-----------------------------------------------
A--7slide8slide7--5--7--5---------------2--6-----
E-------------------------7--5---2--4-----------

E------------------------------------------------
B------------------------------------------------
G------------------------------------------------
D------------------------------------------------
A--4slide6-4--6-4---------------2---6 sustain----
E------------------6--4---2--4-------------------

Play the B chord (in F position on 7th fret)


only the first 4 strings, u need the little finger for something else later)
TAB X X 9 8 7 7

Song

Mil gaya humko saathi mil gaya


B.......................................

Humse gar koi jal gaya


B..................E..........

Ho Ho Jalnede
E....E...B.........

Ho Ho Jalnede
E....E...B.........

Chal gaya pyar ka jadoo chal gaya


B..............................................

Humse gar koi jal gaya


B..................E...........

14
Ho Ho Jalnede
E....E...B.........

Ho Ho Jalnede
E....E...B.........

now the TUK TAK TUK TAK part

play
TUK....TAK...TUK....TAK...TUK....TAK...TUK....TAK. ..
Badd9..B......Badd9..B......Badd9..B......Badd9..B ......

even thru the lines that go "TERE LIYE ZAMANA TERE LIYE"
you play the TUKTAK TUKTAK part

Badd9 is like the B you held as I showed you and the little finger playing the 9th fret on E string (XX9879)

SUMMER OF 69-BRYAN ADAMS

Intro: D* A* D* A*

D* A*
i got my first real six string - brought it at the five & dime
D* A*
played it til my fingers bled - was the summer of '69
D* A*
me and some guys from school had a band and we tried real hard
D* A*
jimmy quit and jody got married - shoulda known we'd never get far
Bm A D G
oh when i look back now - that summer seemed to last for ever
Bm A D G
and if i had the choice - ya i'd always wanna be there
Bm A D* A*
those were the best days of my life
D* A*
ain't no use complaining - when ya gotta job to do
D* A*
spent my evenings down at the drive in - and that's when i met you - ya
Bm A D G
standing on your mamma's porch - you told me that you'd wait forever
Bm A D G
and when i held your hand - i knew that it was now or never
Bm A D* A* D* A*
those were the best days of my life - back in the summer of '69
F Bb
man we were killin' time
C Bb
we were young and reckless - we needed to unwind
F Bb C
i guess nothing can last forever...
D* A* D* A*
D*
and now the times are changin'
A*
look at everything that's come and gone
D*
sometimes when i play my old six string
A*

15
i think about you wonder what went wrong
Bm A D G
standing on your manna's porch - you told me it'd last forever
Bm A D G
and when i held your hand - i knew that it was now or never
Bm A D* A* D* A*
those were the best days of my life - back in the summer of '69
continue on D* A*

Song name - O Sanam


SCALE : G(Original Scale)
The Huming chords is as follows
G....C....A....G....
hmm..hmm..hmm..hmm..

G....C....A....G....
hmm..hmm..hmm..hmm..

G Am
Sham savarea teri

G Am
yadain aati hain

G Am
Hava ke dil ko merea

GD
Yoon tadpati hain

CDCDG
O sanam mohoobaat kasam Hm....

G Am
Milke bichadena tho

G Am
Dastoor ho gaya

G Am
Yahoon main teri main jo

GD
Door ho gaya

CDCDG
O Sanam in yadoon ki kasam Hm....

G....C....A....G....
hmm..hmm..hmm..hmm..

16
G....C....A....G....
hmm..hmm..hmm..hmm..

GD
Samjhea jamana ki dil hai khilona

CD
Jana hai ab kaya hai dil ka lagana

Am D
Nazron se na ab hum ko churana

CDG
Mar bhi gayea tho bhool na jaana Hmm...

G Am G Am
Akhon main basi ho par door ho kahin

G Am G D
Dil kea kareeb ho yeah mujh ko hai yakeen

CDCDG
O sanam terea payaar ki kasam Hmm...

G....C....A....G....
hmm..hmm..hmm..hmm..

G....C....A....G....
hmm..hmm..hmm..hmm..

and the song fades.........

Aankhon mein sapne liye


Cm
Ghar se hum chal to diye
Gm
Jaane yeh raahein ab le jaayengi kahan
Eb F
Mitti ki khushboo aaye
Cm
Palkon pe aansu laaye
Gm
Palkon pe reh jaayega yaadon ke jahan
Eb F
Manzil nayi hai anjaana hai kaarvaan
Eb F
Chalna akele hai yahan
Eb F

Tanha dil, tanha safar


Cm Gm
Dhoonde tujhe phir kyoon nazar
Eb F

Tanha dil, tanha safar


Cm Gm
Dhoonde tujhe phir kyoon nazar
Eb F

Tanha dil
Cm

17
HOTEL CALIFORNIA
Music by Don Felder & Joe Walsh
Words by Don Henley & Glenn Frey

Eagles
Hell Freezes Over
1994

Everyone and his brother has asked for this, so I'm putting it up.
A guy named John Senckowski was going to send me the tab, but I
figured it out before he got to it. Thanks anyway, John. Here I
have the intro, and the solos. The rest of the song is just
basically the electric version, toned down a little, and with
different riffs in the chorus. Good luck!

There are three guitars going here:


FREY 12-string acoustic, capo 2nd fret
WALSH 6-string acoustic, nylon string
FELDER 6-string acoustic, nylon string

This is the intro. Frey plays the top chords shown in parentheses,
while Walsh plays the bottom chords. Felder plays the intro riff you hear.

(Am) (G)
Bm A
e:-----------------------------------------|---------------------------------|
B:--------------------3--5--7--7h8p7--5/7--|---------------------------------|
G:-----4--4h5p3h4--5-----------------------|--------7-6----------------------|
D:-----------------------------------------|----7-9---------7h9-7------------|
A:-----------------------------------------|--------------9--------9\7--5/7--|
E:-----------------------------------------|---------------------------------|

(Dsus2)
Em grad. acceleration (keeps repeating)
e:-----------0-------0-------0-------0-----7p0-----10p0-----7p0-----10p0-----7p0-----10p0-|
B:---------0-------0-------0-------0-----8-------8--------8-------8--------8-------8------|
G:-------0-------2-------4-------7-----9-------9--------9-------9--------9-------9--------|
D:-----2-------4-------5-------9----------------------------------------------------------|
A:----------------------------------------------------------------------------------------|
E:----------------------------------------------------------------------------------------|

(E7)

18
e:-----7p0-----10p0-----7-6-7-9-10-9-10-12/14-14~~~~~-|
B:---8-------8--------8-------------------------------|
G:-9-------9--------9---------------------------------|
D:----------------------------------------------------|
A:----------------------------------------------------|
E:----------------------------------------------------|

Here's where the percussion comes in. Everyone keeps


playing the same things.

(Asus2)
Bm
+ + + + + + + + + + + + + + + +
e:-----------------|-----------------|-----------------|-----------------|
B:---------7h8p7---|-7-7-------7-----|-----------------|-----------------|
G:---------------9-|-------9-------7-|---9---7---------|-----------------|
D:-------9---------|-----------------|---------9p7-7/9~|~~~~~~~~~~~~~~~~-|
A:-----------------|-----------------|-----------------|-----------------|
E:-----------------|-----------------|-----------------|-----------------|

(G)
A
+ + + + + + + + + + + + + + + +
e:-----------------|-----------------|------------------|-7-----9-10-9-10-|
B:-----------------|-----------------|-------8---7-8/10-|-----------------|
G:-----------7-6---|-6---6-----.-----|-6-7-9------------|-----------------|
D:-------7-9-----9-|-------7---9-----|------------------|-----------------|
A:-----------------|-----------------|------------------|-----------------|
E:-----------------|-----------------|------------------|-----------------|

(Dsus2)
Em
+ + + + + + + + + + + + + + + +
e:-12\\----------0-|-------0-------0-|-------0-7h0---10-|---12---10---7\\----|
B:--------------0--|------0-------0--|-----0-------0----|--------------------|
G:-------------0---|-----2-------4---|---9--------------|--------------------|
D:---------2-------|-4-------5-------|-7----------------|--------------------|
A:-----------------|-----------------|------------------|--------------------|
E:-----------------|-----------------|------------------|--------------------|

(E)
F#7
+ + + + + + + + + + + + + + + +
e:---------9--9h10p9\7--7h9p7\6-----|------------------|-----------------|-----------------|
B:----------------------------------|-8--7--7--7--8--7-|---7-------------|-----------------|
G:----------------------------------|------------------|-9-----7---6-----|-----------------|
D:----------------------------------|------------------|-------------9-8~|~~~~~~~~~~~~~~~~-|
A:----------------------------------|------------------|-----------------|-----------------|
E:----------------------------------|------------------|-----------------|-----------------|

More things start happening here.


Frey's 12-string starts messing with picking patterns based around these chords:
Am E7 G D9 F C Dm E7

Felder plays something similar the intro 12-string part with his 6-string, it's found on
my Hotel California page. He doesn't use a capo though.

Walsh plays this little thing after the first round of Felder's part:

+ + + + + + + + + + + + + + + +
e:-----------------|-------------------------------|-----------------|------------------|
B:-----------------|-------------------------------|-----------------|------------------|
G:-----------------|-------------------------------|-----------------|------------------|
D:-----------------|-------------------------------|-----------------|------------------|
A:-5~~~~~~-7---9---|-7-----------5h7p5\4~~~~~~~~~~-|-4~~~~~~-5---7---|-\2~~~~~~~~~~~~~~-|
E:-----------------|-------------------------------|-----------------|------------------|

+ + + + + + + + + + + + + + + +
e:-----------------|------------------|-----------------|---------------------|
B:-----------------|------------------|-----------------|---------------------|
G:-----------------|--2---------------|-----------------|---------------------|
D:-----------------|--0-------2/4-0---|-2-------4---5---|-4h5p4\2-4-----------|
A:-2~~~~~~-4---5---|-\0---------------|-----------------|---------------------|
E:-----------------|------------------|-----------------|---------------------|

Here's where the vocals come in. The lyrics can be found here.
Felder and Frey keep doin' what they're doin', and Walsh sits
around and acts bored for the first verse. During the second
verse (There she stood...), Walsh plays the foreground acoustic
part. It is very similar to what's found in the electric version
here, except Walsh slides the chords instead of bending them.

Once we get to the chorus, Frey plays these chords:


F C D7 Am F C Dm E

19
Felder plays this:
G D F# "Fill 2" D Em F#

Walsh plays Fill 1, 2, and 3. If you listen, they are easy to hear:

Fill 1
California Such a lovely place, such a
+ + + + + + + +
e:--|-----------------|---.---.----------|
B:--|-----7-7---7---7-|-7/9---7---7------|
G:--|-----7-7---9---7-|-9/11--9---7------|
D:--|-----------------|------------------|
A:--|-----------------|------------------|
E:--|-----------------|------------------|

Fill 2
lovely face. Plenty of room at the
WALSH:
+ + + + + + + + + + + +
e:-----------------|-----------------|-----------------|
B:-----------------|-----------------|-----------------|
G:-----------------|-----------------|-----------------|
D:-----------------|---------2---4---|-5~~~~~~~~~~~~~~-|
A:-2-------4-------|-5---------------|-----------------|
E:-----------------|-----------------|-----------------|
FELDER:
e:---------0-------|-2-------3---5---|-7---------------|
B:-3-------2-------|-3-------5---7---|-8---------------|
G:-4---------------|-----------------|-----------------|
D:-----------------|-----------------|-----------------|
A:-----------------|-----------------|-----------------|
E:-----------------|-----------------|-----------------|

Fill 3
Hotel California
+ + + + + + + +
e:-------9--9--9\\7-----7--|-7\5---5-5-------|
B:-------10-10-10\8-----8--|-8\7---7-7-------|
G:-------------------------|-----------------|
D:-------------------------|-----------------|
A:-------------------------|-----------------|
E:-------------------------|-----------------|

Once we get to the "So I called up..." verse,


Walsh again plays the verse slides. When we get to the second
chorus, everyone plays the same thing again except for Walsh.
Walsh does: Fill 3, 2, and 4 (in that order).

Fill 4
+ + + + + + + +
e:-----7-7-7\5---5-|-5\------2-------|
B:-----8-8-8\7---7-|-7\------3-------|
G:-----------------|-----------------|
D:-----------------|-----------------|
A:-----------------|-----------------|
E:-----------------|-----------------|

During the "Mirrors on the ceiling" verse, Frey does the


same picking that he did in the intro, and Felder does the 7th-fret stuff again.
Walsh is bored until the "Last thing I remember..." verse, where he plays this,
and it leads into the solo:

Last thing... I was runnin' for the door. I had to find the
+ + + + + + + + + + + + + + + + + + + +
e:-----------------|-7\6-7-----------|-----------------|-6---6-----------|-----------------|
B:-----------------|-7\6-7-----------|-----------------|-7\6-7-----------|-----------------|
G:-7---------------|-----------------|-6---------------|-----------------|-6---------------|
D:-9---------------|-----------------|-8---------------|-----------------|-7---------------|
A:-----------------|-----------------|-----------------|-----------------|-----------------|
E:-----------------|-----------------|-----------------|-----------------|-----------------|

passage back to the place I was before. Relax said the night man
+ + + + + + + + + + + + + + + + + + + +
e:-5\4-5-----------|-----------------|-4\3-4-----------|-----------------|-3\2-3-----------|
B:-5\4-5-----------|-----------------|-5\4-5-----------|-----------------|-3\2-3-----------|
G:-----------------|-4-------------4-|-----------------|-4---------------|-----------------|
D:-----------------|-6-------------6-|-----------------|-5---------------|-----------------|
A:-----------------|-----------------|-----------------|-----------------|-----------------|
E:-----------------|-----------------|-----------------|-----------------|-----------------|

We are programmed to receive You can check out... but you can never
+ + + + + + + + + + + + + + + + + + + +
e:-----------------|-2\1-2-----------|-----------------|-----------------|-----------------|
B:-----------------|-3\2-3-----------|-----------------|-5\4-5-----------|-----2-----2---2-|

20
G:-2---------------|-----------------|-0---------------|-4---4-----------|-3---3-------3---|
D:-4---------------|-----------------|-2---------------|-----------------|-4---4-----------|
A:-----------------|-----------------|-----------------|-----------------|-4---------------|
E:-----------------|-----------------|-----------------|-----------------|-----------------|

leave
+ + + +
e:-----------------|
B:-----------------|
G:---------------6-|
D:-4---4---8--9----|
A:-4---4-----------|
E:-2---2-----------|

And of course, the long-awaited solo,


which comes in right from the measure above. Walsh starts it:

Bm F#7 A
+ + + + + + + + + + + + + + + + + + + +
e:-----------------|-----------------|-7---5---3---2---|------------9-10-|-12-12-12-12------|
B:-----------------|-----------------|-----------------|-----------------|------------------|
G:-9-------9--9--9-|-9--7--6-9--7--6-|-7---6---4---3---|-----------------|------------------|
D:-----------------|-----------------|-----------------|-----------------|------------------|
A:-----------------|-----------------|-----------------|-----------------|------------------|
E:-----------------|-----------------|-----------------|-----------------|------------------|

E7 G
+ + + + + + + + + + + + + + + +
e:-12-10-9----10-9-------|-----------------|------------------|-----------------|
B:---------12------12-10-|-9---------------|------------------|-----------------|
G:-----------------------|-------9---------|------------------|-----------------|
D:-----------------------|-------------9---|-9h11-------------|---------0-----2-|
A:-----------------------|-----------------|------------------|----0--2----4----|
E:-----------------------|-----------------|----------------2-|-3---------------|

D Em
+ + + + + + + + + + + + + + + + + + + +
e:-------------------|-----------------|-----------------|-------0----0-----|---------0-------|
B:-------------------|-----------------|-----------------|--------0----0----|----------0------|
G:---------0-----2h4-|-2-------4p2-----|-----------------|---------0----0---|-----------0-----|
D:-0--4--2----4------|-------------4---|-----------------|----------2----2--|------------2----|
A:-------------------|-----------------|-----------------|----------------2-|-----------------|
E:-------------------|-----------------|-----------------|------------------|-----------------|

F#7
WALSH:
+ + + + + + + +
e:-------2---------|-2-----------------|
B:--------2--------|-3-----------------|
G:---------3-------|-3-----------------|
D:----------4------|-------------------|
A:-----------------|-------------------|
E:-2---------------|-------------------|
Bm
FELDER: + + + +
e:-----------------|-------------------|---------------------|
B:-----------------|-------------3-5-6-|-7h8p7p5-7---------5-|
G:-----------------|-4h5p4p3h4-5-------|-----------------7---|
D:-----------------|-------------------|---------------------|
A:-----------------|-------------------|---------------------|
E:-----------------|-------------------|---------------------|

F#7
+ + + + + + + + + + + +
e:---------------------------------|-------0-7--9--7-|-----14----------|
B:-7--7h8p7\5--5h8p5\3--3h5p3\2----|----2------------|-11--------------|
G:------------------------------4--|-3---------------|-----------------|
D:---------------------------------|-----------------|-------------12\-|
A:---------------------------------|-----------------|-----------------|
E:---------------------------------|-----------------|-----------------|

A E7
+ + + + + + + + + + + + + + + +
e:-----------------|-----------------|--------------------------------|-----0-----------|
B:----7--7-7-------|-----------------|--------------------------------|-----------------|
G:------------9--9-|-9--7--7-6-------|------7---7h9p7\6---6h7p6\4-----|-----------------|
D:-----------------|------------9--7-|-6---------------------------7--|-6---------2---4-|
A:-----------------|-----------------|--------------------------------|-----------------|
E:-----------------|-----------------|--------------------------------|-----------------|

G D
+ + + + + + + + + + + +

21
e:-----------------------|---------------------3-|-3/5-5-5-5/7-5-3-|
B:-----------------------|-----------------3-5---|-5/7-7-7-7/8-7-5-|
G:-----------------------|-4---4h6p4-3-4-6-------|-----------------|
D:-5h7p5p4-5---------7---|-----------------------|-----------------|
A:-----------------------|-----------------------|-----------------|
E:-----------------------|-----------------------|-----------------|

Em
+ + + + + + + + + + + +
e:-5\----------------------|-------3p0---7p0-|---10p7---12p10-----|
B:-7\----------------0h2h3-|-5p0-------0-----|-0------0-------12\-|
G:-------------0h2h3-------|-----0-----------|--------------------|
D:-------0h2h4-------------|-----------------|--------------------|
A:-------------------------|-----------------|--------------------|
E:-------------------------|-----------------|--------------------|

divisi
F#7 Felder=upper
+ + + + + + + +
e:-2---2h3p2-0---2--0----|--------------7-6-7-9-|
B:-------------3-------3-|-2h3p2p0-2----3-2-3-5-|
G:-----------------------|----------------------|
D:-----------------------|----------------------|
A:-----------------------|----------------------|
E:-----------------------|----------------------|

From here on out, Felder plays the top (e.g. 10p7 7) and
Walsh plays the bottom (7p3 4). Thanks to Valentin Bojkov
for the ending!

Bm F#7
+ + + + + + + + + + + + + + + +
e:-10p7---10p7---10p7-|---10p7---10p7-----|-9p6---9p6---9p6-|-/14--------------|
B:--7p3-7--7p3-7--7p3-|-7--7p3-7--7p3-7---|-5p2-7-5p2-7-5p2-|--9/11------------|
G:------4------4------|-4------4------4---|-----3-----3-----|------------------|
D:--------------------|-------------------|-----------------|------------------|
A:--------------------|-------------------|-----------------|------------------|
E:--------------------|-------------------|-----------------|------------------|

A E G
+ + + + + + + + + + + + + + + + + + + +
e:-9p5---9p5---9p5-|---9p5---9p5-----|-7p4---7p4---7p4-|/12--------------|-7p3---7p3---7p3-|
B:-5p2-5-5p2-5-5p2-|-5-5p2-5-5p2-5---|-5p0-5-5p0-5-5p0-|-11/13-----------|-3p0-3-3p0-3-3p0-|
G:-----2-----2-----|-2-----2-----2---|-----------------|-----------------|-----0-----0-----|
D:-----------------|-----------------|-----6-----6-----|-----------------|-----------------|
A:-----------------|-----------------|-----------------|-----------------|-----------------|
E:-----------------|-----------------|-----------------|-----------------|-----------------|

D7 Em
+ + + + + + + + + + + + + + + + + + + +
e:---7p3---7p3-----|-5p2---5p2---5p2-|-/10--------------|-3p0---3p0---3p0-|---3p0---3p0-------|
B:-3-3p0-3-3p0-3---|-----3-----3-----|------------------|-----0-----0-----|-0-----0-----0-2/3-|
G:-0-----0-----0---|-5p2---5p2---5p2-|--12/14-----------|-4p0---4p0---4p0-|---4p0---4p0---3/4-|
D:-----------------|-----4-----4-----|------------------|-----2-----2-----|-2-----2-----2-----|
A:-----------------|-----------------|------------------|-----------------|-------------------|
E:-----------------|-----------------|------------------|-----------------|-------------------|

Felder
F#7 Bm
+ + + + + + + + + + . + +
e:-0-----2-----6---|-9-7/10---7-----0-|-7-7-7-7---------|
B:---2-----3-----7-|--------7---5-7---|-7-7-7-7---------|
G:-----3-----4-----|------------------|-7-7-7-7---------|
D:-----------------|------------------|-9-9-9-9---------|
A:-----------------|------------------|-----------------|
E:-----------------|------------------|-----------------|

Walsh
e:-----------------|----------------0-|-------.---------|
B:-2-----3p0---5p0-|---7p3----3p2-3---|-3-3-3-3---------|
G:---3-------------|------------------|-4-4-4-4---------|
D:-----4-----4-----|-4------4---------|-4-4-4-4---------|
A:-----------------|------------------|-2-2-2-2---------|
E:-----------------|------------------|-----------------|

22
!!.Original Scale.!!

app ki kashish
G#m-------------D#
sarfarosh hai
G#m-------------D#
aapka nasha
G#m-------------D#
yun madhosh hai
G#m-------------D#
kya kahe tumse janiya
D#---------------F#
gum hua hosh hai
G#m
gum hua hosh hai
G#m
(TWICE)

MUSIC (INTERLUDE)

DISTORTION GUITAR LEAD

23
G -9S11-9-------6--8-----
D ---------9S6-----------

G -8-9S11-9-------6--9-8-
D ---------9S6-----------

DUBA RAHU SADA


G#M

TERE KHAYALON MEIN


G#M--------------F#

ULJA RAHU SADA


F#

TERE SAVALON MEIN


F#-----------G#M

TERE BINA KAHI


G#m

AB NA KHAYAL HAI
G#M-----------F#

JANEMAN TUJPE TO
F#

JAAN BHI HIZAR HAI


F#-----------G#M

JAANA RE JAANE MERA JAANA


G#M-----------------------------F#
TU MERA TU MERA DEEWANA
G#M-----------------------------F#

NA MERI KHATAB
G#m

NA MERA DOSH HAI


D#

AAPKA NASHA
G#M

YUN MADOSH HAI


F#

kya kahe tumse janiya


D#---------------F
gum hua hosh hai
G#m
gum hua hosh hai
G#m
B B G# F# B F# E B E E E E E E

(The above notes are the finger positions of the first and the
second strings)

EA
I wanna be young the rest of my life;
EA
Never say no, try anything twice.
EA
'Til the angels come and ask me to fly,
EA
Gonna be 18 till I die

18 'til I die!

Verse 2:

24
EAD
Can't live forever, that's wishful thinkin'.
EAD
Whoever said that must have been drinkin'.
EA
Don't wanna grow up. I don't see why.
GA
I couldn't care less if time flies by.

Chorus:

DGDA
18 'til I die, gonna be 18 'til I die.
DG
Yeah, it sure feels good to be alive,
DA
Someday I'll be 18 going on 55.
DGA
18 'til I die.

Verse 3: (same as verse 1)

Anyway, I just wanna say


Why bother with what happened yesterday?
It's not my style, I live for the minute;
If ya wanna stay young, get both feet in it.
18 'til I die.

Verse 4: (same as verse 2)


A little bit of this, a little bit of that;
A little bit of everything, gotta get on track.
It's not how you look, it's what ya feel inside
I don't care when, I don't need to know why.

Chorus:(same as before-different ending)

DGA
...18 'til I die. There's one thing for sure,

I'm sure gonna try.

* Then you play the chorus again without words(instrumental)...


D G Em A D G Em A

ENDING:

Yeah don't worry about the future, forget about the past;
We're gonna have a ball, yeah, we're gonna have a blast.
Gonna make it last. Hey, yeah.

chandani raten
A..................E....................A
chandani raten..chandani raten
A..............E......................F#m
sab jag soye hum jaage
F#m.........................A(barred)...
taaron se kare baaten..
C#m
hooo
A..................E....................A
chandani raten..chandani raten
__________________

25
Toota toota ek parinda aise toota, Ke phir jud na paaya.
Gadd9 D Gadd9

Loota loota kisne usko aise loota ke phir ud na paaya...


Gadd9 D Gadd9

Strumming begins

|Gadd9 |Gadd9 |

26
Toota toota ek parinda aise toota, Ke phir jud na paaya.
Gadd9 D Gadd9

Loota loota kisne usko aise loota ke phir ud na paaya...


Gadd9 D Gadd9

Girta hua woh aasmaan se,


G Bm

aakar gira zameen par,


Em G

khaabon mein phir bhi baadal hi the woh kehta raha magar...
Gsus4 Gsus4 Gsus4 Gsus4 D

Ke allah ke bande hans de


G Bm
Allah ke bande
Em G

Allah ke bande hans de


G Bm
Jo bhi ho kal phir aayega
C D

Allah ke bande hans de


G Bm
Allah ke bande
Em G

Allah ke bande hans de


G Bm
Jo bhi ho kal phir aayega
C D

1st interlude
|G | Eb F|
|G | Eb F|

verse 1
Kho ke apne par hi toh usne tha udna seekha
F D G G D
Kho ke apne par hi toh...
F D G
Kho ke apne par hi toh usne tha udna seekha
F D G G D
Kal ko apne saath mein lele dard bhi tere kaam aayega
F D G G G G

Ke allah ke bande hans de


G Bm
Allah ke bande

27
Em G

Allah ke bande hans de


G Bm
Jo bhi ho kal phir aayega
C D

Allah ke bande hans de


G Bm
Allah ke bande
Em G

Allah ke bande hans de


G Bm
Jo bhi ho kal phir aayega
C D

2nd interlude

|G |Cm G|
|Bm |Em |
|C D| G |

2nd verse same as first

Tukde tukde ho gaya tha har sapna jab woh toota


Tukde tukde ho gaya tha
Tukde tukde ho gaya tha har sapna jab woh toota
Bikhre tukdon mein allah ki marzi ka manzar paayega

Toota toota ek parinda aise toota, Ke phir jud na paaya.


Gadd9 D Gadd9

Loota loota kisne usko aise loota ke phir ud na paaya...


Gadd9 D Gadd9

Girta hua woh aasmaan se,


G Bm

aakar gira zameen par,


Em G

khaabon mein phir bhi baadal hi the woh kehta raha magar...
Gsus4 Gsus4 Gsus4 Gsus4 D

Ke allah ke bande hans de


G Bm
Allah ke bande
Em G

Allah ke bande hans de

28
G Bm
Jo bhi ho kal phir aayega
C D

Allah ke bande hans de


G Bm
Allah ke bande
Em G

Allah ke bande hans de


G Bm
Jo bhi ho kal phir aayega
C D

Ke allah ke bande hans de


G Bm
Allah ke bande
Em G

Allah ke bande hans de


G Bm
Jo bhi ho kal phir aayega
C D

Allah ke bande hans de


G Bm
Allah ke bande
Em G

Allah ke bande hans de


G Bm
Jo bhi ho kal phir aayega
C D

E|---------4-4h5p4----------------|---------4-4h5p4---------------|---------4-4h5p4-------------7--|
B|--5--7--------------7-7-7-7-7--|--5--7--------------7-7-7-7-7--|--5--7--------------7-7-7-7-----|

29
E|---------4-4h5p4----------------|
B|--5--7--------------7-7-7-7-7--|

F#m
aati hai woh aise chal ke, jaise jannat mein raheti hai
F#m---------------E-----------F#m--------------------
dekhti hai sabko aaise, jaise sabko woh saheti hai
F#m------------------A-----F#m------------------A------
par gusse main jab aaye, aur aankhein woh dikhlaye
A-----------B------------F#m--
ladte ladte galti se muskaaye
F#m---------A—E—F#m---
my dil goes mmmmmmmm

*Chords same as above*


karti hoon jab usse baatein, lagta hai sone waala hai
soke jab jab bhi woh jaage, lagta hai rone waala hai
par chupke se woh aaye, meri neend se mujhe jagaye
le baahon mein aur khudh hi gir jaaye
my dil goes mmmm - 4

F#m---------------------E---------------------F#m--
haan, woh na na karti hai, haan, bada akarti hai
F#m-------------------E--------------------------F#m--
haan, thodi si ziddi hai, haan, akal se piddi hai
F#m-------E---------------A--------------F#m----
jaate hain sab woh aaye, na aaye woh jaati hai
F#m----E----------A---------------F#m---
tedhi in baaton se mujhko satati hai
F#m----------------A----F#m-----------A-------
har waqt se pehle aana, sunna na koi bahana
A------------B-----------F#m---
par dekhna mera rasta rozana
F#m---------A—E---F#m---
my dil goes mmmmmmmm

*Chords same as first stanza of antara*


*For the last eight repeatations of “My dil goes mmmm”, chord sequences change to
Gm----------Bb—F—Gm---
My dil goes mmmmmmmm

Lyrics of last two stanza


haan, picture mein rota hai, haan, khulle mooh sota hai
haan, zara nalayak hai, haan, pitne ke layak hai
jaane kya kehta hai, jaane kya karta hai
sofe pe chadhta hai, pardo se ladta hai
jab karne lage safaai, samjho ke shaamat aayi
phir thak ke jab leta hai angdai
my dil goes mmmm

haan, thodi alag si hai, haan, thodi galat si hai


haan, thoda alag sa hai, haan, thoda galat sa hai
aisi bhi hogi woh aisa na socha tha
aisa hi hoga woh aisa hi socha tha
kyun lagta hai yeh apna, yeh sach hai yeh sapna
dar lagta hai kahin ho na jaaye jhooth
my dil goes mmmm

30
AB NAA JAA - EUPHORIA

EB
AAKHEN BAND KAR LUN TO MAIN
AE
DEKHUN BAS TUMHE
EB
KHWABON MEIN HI KEH SAKA HOON
AE
APNA TUMHE

ABAE
REHNE DE, MERA YEH VEHEM PE HI YAKEEN
EB
NA JAA ABHI….
AB
PYAR KI YEH RAAT HAI, AB NA JAA
AEAE
CHOTI SI EK BAAT HAI, AB NA JAA

EB
TUMHI SE HAIN MERI NEENDEIN
AE
NA BHI HO TO KYA
EB
TUMHI SE HAIN MERI BAATEIN
AE
NA BHI HO TO KYA
ABAE
KEHNE DE, TAARON KO KAHANI ANKAHI
EB
NA JAA ABHI

AB
PYAR KI YEH RAAT HAI, AB NA JAA
AEAE
CHOTI SI EK BAAT HAI, AB NA JAA

PAL DO PAL KA SAATH HAI, AB NA JAA

JAADO SI EK RAAT HAI, AB NA JAA


AE
AB NA JAA

E
MAATHE PE PYAR KI BOONDEIN
A
BIKHRE SE KAI SAWAAL
E
LAKHON MEIN KITNE MAUSAM
AB
PAL MEIN BEETE KITNE SAAL

(same chords as before..)

CHAND MERA DIL

Intro..

E -------------0-------------------------------------
B -----------------1p0-------------------------------

31
G -------0h2------------0^2^0----------------------
D --0h2---------------------------2------------------
A ------------------------------------2---3----------
E ----------------------------------------------------

Am..............Dm G.................C
Chaand mera dil Chaandni ho tum

Am.................F....F...............Am
Chaand se hai door chaandni kahaan

Am.........Dm G................C
Laut ke aana hai yahin tumko

Am...............F F...............Am
jaa rahe ho tum Jaaao meri jaan..

G...........Am......... F.........Am........
Waise to har kadam milenge log sanam

Am.....G............Dm.....F...............G
Milega sachchaa pyaar mushkil se... ho O O

(same set of chords as the above)


Dil ki dosti khel nahin koi
Dil se dil hai milta yaar mushkil se

G.........B........... F..............Am... ( this i'm really unsure)


yahi to hai sanam pyaar ka thikana..

G........... E........... Am..............


main hoon main hoon main hooon...

DEKHA HAI AISE BHI - LUCKY ALI

G[X20033] G[X32033]

GHAR KO MEY NIKLA / TANHA AKELA

G[X20033] G[X32033]

SAATH MERE KAUN HAI/ YAAR HAI MERA

G[X20033] G[X32033]

JO BHI KARNA THA /KAR AA GAYA MAIN

G[X20033] C[X320XX] D[XX0232] G[XXX033]

PYAR KO HI MAANTE /CHALTE JAANA /AA AAAA......

G[X20033] G[X32033]

DEKHA HAI AISE BHI/ KISI KO AISE HI

C[X32010] D[XX0232]

APNE BHI DIL MAIN BASAYE HUE KUCH/ IRADE HAI

C[X32010] A[X03330]
DIL KE KISI KONE MEIN BHI KUCH AISE HI/ WAADE HAIN N.N....

C[X32010] D[XX0232] C[X32010] D[XX0232] C[X32010] D[XX0232] G[X20033]


INKO/ LIYE /JAB HUM / CHALEIN /HAZAROON MAIN /HUM BHI / MILEE O ...O....O

32
DIL KO TUMSE PYAR HHUA

Dilko Tumse Pyaar Hua Pehli Baar Hua Thumse


Pyaar Hua
Am G F E
Main Bhi Aashiq Yaar Hua Pehli Baar Hua Tumse
Pyaar Hua
DCDCDFCE
Chaayi Hain Betaabi Meri Jaan Kahon Main Kya
Karoon
DCDCDFCE
Chaayi Hain Betaabi Meri Jaan Kahon Main Kya
Karoon
Am G F E
Dilko Tumse Pyaar Hua Pehli Baar Hua Tumse Pyaar
Hua
Am G F E
Main Bhi Aashiq Yaar Hua Pehli Baar Hua Tumse
Pyaar Hua

DOOBA DOOBA - SILK ROUTE

GCD
Dooba dooba rehta hoon aankhon me teri

GCD
Deewana ban gaya hoon main chaahat me teri

Am Bm
Ab din guzarte nahin

Am Bm
Ratein kat..ti nahin

Am Bm Am Bm G
Teri tasvir se baat ban...ti nahin... Aa..ja

the chords for the music before the para are

G C Am G

G
Koi jaane na
Pehchaane na

Am D
Yeh hua kaise

CD
Tum aagaye kwabon mein aise

Am Bm Am Bm
Bewafa.... sun oh bewafa.... na jaa

KABHI AISA LAGTA HAI - LUCKY ALI

KABHI AISA LAGTA HAI ,


G
DIL MAIN EK RAAZ HAI
C
JISE KEHNA CHAHU PAR
D
MAIN KEH PAVU NAA
G
MAIN NE SUNA JO NA USNE KAHA
Am
KYA AISA BHI HOTA HAI....

33
G
MERE KHUDA MUJHE ITNA BATA
C
KYA AISA BHI HOTA HAI.
D

G........................D...
Mai koi aisa geet gau
G.....................D....
Ke aarjoo jagau

repeat the first two lines


C......D......G..
Agar tum kaho
G................D........G............D......
Tumko bulaaoo ke palke bichhaoo
C.................G..............D.....
Kadam tum jaha jaha rakho
G.............................D.......
Jammen ko aasma banaoo
G.................D....
Sitaro se sajaooo
C......D......G....
Agar tum kaho

1st stanze
G...................................
Agar kaho to mai sunaoo
.............................D.....
tumhe haseen kahaniya
...........................G........
sunogi kya meri jabani
........................D.........
tum ek pari ki dastaan
C..........D........A..........D...
ya mai karu tumase bayan

repeat "ya mai karoo tumase bayan"

D..............C..............D...C
ke raja.. se raani ...mili thi
G.......D......G...................D..
kaha.kahaniyo ke shahar me
G.................D.....
tumhe leke jaaoo
C.......D.......G
Agar tum kaho..

Same for the 2nd stanza

Mai titliyo ke peeche bhaagoo


mai jugnoo ke peeche jaooo
wo rang hai wo roshani hai
tumhare paas dono laooo
jitni khushbooye baagh me mile
mai laao yahape ke tumako
jaha jahape ek pal bhi thaharu
mai gulsita banaoo
Agar tum kaho

34
F................................................
Kuch tum socho kuch hum soche
C.......................................F....
Fir khushi ka ye mausam aaye
F......................................
tanha tanha kaun jiya hai
C..........................................F..
reheke tanha ye dil ghabaraye
F...........................................
Aaa jao milake rishta ye jode
F..............................................
sharte badal de rasmo ko tode
C........................G.......................F ......
Isase pehale ke Duniya hame aajmaye
F............
Hooo hoo

1st stanza
F................................................. .............Bb....
Duniya ki rasmo ko chahat me shamil na karna
Bb...............F........Bb...........F.........C ..........................F......
Manzil hum aapni paake rahenge ha tum kisi se na darna
F........................................C........ .......................F....
pagal rasme pagal duniya aur thode hum tum pagal
F.......................
kuch tum socho

Same for the 2nd stanza

35
STRUMMIN IS STRICTLY PROHIBITED::::: just adlib the whole song........
C.......................................Em........ ....
har ghadi badal rahi hain rup zindagi,
C.......................................Em........ ....
chao hain kahi kahi hain dhup zindgi,
..............F.....,..............C,
har pal yaha ,zi bhar jiyo,
...............F...,.Gm......C..........
jo hain sama, kal ho na ho....

para::

.G.............................FC...
chahe jo tume pure dil se,
.G.............................FC...
milta hain wo mushlkil se,
.G.............................FC...
aisa jo koi kahi hain,
.G.............................FC...
bus wahi sabse hassen hain,
..............F.....,..............C,
us haath ko tum thaam lo,
...............F...,.Gm......C..........
wo meherbaan kal ho na ho.

36
PURANI JEANS

C - 032010
Am - x02210
F - x33211
G - x55433
C* - x05553

[C]Purani Jeans [Am]aur [C]guitar , mohalle [F]ki woh chat, aur [C]mere yaar.

[C]woh raaton ko [Am]jaag[C]na, subhah ghar [F]jaana ,kood [C]ke deewar.

[C]woh cigarette [C*]peena gali mein [F]jaake woh karna [G]daaton ko ghadi ghadi [C]saaf .

[C]Pahunchna college [Am]hamesha [C]late, woh kehna [F]sir ka ,get out from [C]the class.

[C]woh bahar jaake [Am]hamesha [C]kehna, yahan ka [F]system hi hai [C]kharab

[C]woh jaake [C*]canteen main table [F]baja ke woh gaane [G]gaana yaaron ke [C]saath.

[C]Bas yaadein yaadein yaadein reh [F]jaati hein


[F]kuch choti choti baatein reh [C]jaati hein

[C[bas yaadein yaadein yaadein reh [F]jaati hein


[F]kuch choti choti baatein reh [C]jaati hai bas yaadein bas yaadein

[C]Woh papa ka [Am]daant[C]na, woh kehna [F]mummy ka, chorde ji [C]aap

[C]tumhe to bas [Am]nazar [C]aata hai, jahan mein [F]beta mera hi [C]kharab

[C]woh dil mein [C*]sochna karke kuch [F]dikha dein woh karna [G]planning roz nayi [C]yaar

[C]Ladakpan ka woh [Am]pehla pyar, woh likhna [F]haathon pe "A[C]+R"

[C]woh khidki se [Am]jhank[C]na, woh likhna [F]letter unhe baar [C]bar

[C]woh dena [C*]tohfe mein sone ki [F]baaliyan, woh lena [G]doston se paise [G]udhar…..

[C]Bas yaadein yaadein yaadein reh [F]jaati hein


[F]kuch choti choti baatein reh [C]jaati hein

[C[bas yaadein yaadein yaadein reh [F]jaati hein


[F]kuch choti choti baatein reh [C]jaati hai bas yaadein bas yaadein

[C]Aisa yaadon ka mausam chala [F]bhulta hi nahi dil mera

[C]kahan meri jeans [Am]aur [C]guitar, mohalle [F]ki woh chhat aur [C]mere yaar

[C]woh raaton ko [Am]jaag[C]na, subhah [F]ghar jaana ,kood [C]ke deewar.

[C]Purani Jeans [Am]aur [C]guitar , mohalle [F]ki woh chat, aur [C]mere yaar.

[C]woh raaton ko [Am]jaag[C]na, subhah [F]ghar jaana ,kood [C]ke deewar.

[C]purani jeans............................................

37
Aashiq Banaya Aapne Chords
o o...
C#m.................C#m.................B......... ..............C#m
aashiq banaya aashiq banaya aashiq banaya Apne
..B...............C#m(if u wana little variation otherwise B would be continued)............
(tere bin suni suni hain baahein
...B.....................(optional)C#m.
teri bin pyaasi pyaasi nigaahei
A..........................................
tere bin bin asar meri aahein) - 2
............C#m(during Music)
tere bin
...B.....................(optional)C#m.
(tere bin lamha lamha sataye
...B.....................(optional)C#m.
tere bin bekarari jalaaye
A..........................................
tere bin chain mujhko naa aaye) - 2
.........C#m
tere bin

C#m.................................B............. .
(meri nigaaho mein tera chehra rawaa hain
C#m..................................A............ ......................C#m
gehre hain armaan jaane ja paagal samaa hain ) - 2
F#....................................E........... ..........
(apni daayre se toh main ****ne lagi hu
F#....................................E........... ..........
tere baajuo mein aake tootne lagi hu ) -2
REST WUd BE SIMPLE,THNX FOR THE APPRECIATION IN ADVANCE.
tere bin jeena nahi hain gawara

tere bin dil ka nahi hain gujara

tere bin kaun apna sahaara

(aashiq banaya - 3 aapne ) - 2

(bechainiyo ka faaslo ka silsila hain

dardejigar ka yeh sabab hamko mila hain ) - 2

(betaabiyo ne hamko chur kar diya hain

pass aane pe majboor kar diya hain ) - 2

tere bin raat kat ti nahi hain

tere bin pyas mit ti nahi hain

tere bin duri ghat ti nahi hain

(aashiq banaya - 3 aapne ) - 2

38
Asus...............................
Bheegey hont tere, pyaasa dil mera
A...........Gm.....................Asus
Lage abra sa, mujhe tan tera
Asus...............................
Jam ke barsa de, muhj par ghatayen
A...........Gm.....................Asus D A Bm
Too hi meri pyaas, too hi mera jaam
Bm...........................A..............G...
Kabhi mere saath, koi raat guzaar
Bm...........................A..............G...
Tujhe subah tak main karoon pyaar
D....D....A
vo oh oh...
Asus..C9..G6..C9..Asus
vo oh oh

39
Strings - Na Janay Kyon With Solo
Here is the full version. Download the file and run in notepad.
---------------------------------------------------------------------

G.......Bm......Em...............C....
Daykhoo kaisay parbat say badal gayay

...D................C....
Barsay gayy yeh abb kahan

G......Bm......Em...................C....
Dakhoo kaisay pholoon say khushboo gayee

...D...............C...........G
Mehkay gee yeh abb kahan

--------------------------------------------------------------------

D.............G.....
Sukh ban gaye sapnay (can also use cadd9)
D..............G....
Sab khoo gayay apnay

-------------------------------------------------------------------

Em.............D............................
Dil bujh gayaaaaa ghar jal gayaaaaa

Am................C.................
Na janay kyun na janay kyun

Em................D...........
Yaddo ka phir aanchal ura

Am...............C.................
Na janay kyun na janay kyun

D.................................
Najanay kyun najanay kyun

--------------------------------------------------------------------

G..........D........Em.............C.............. ...
daykhoo kaisay hathoon say jugnoo gayay
.....D...............C............G
chamkay gayy yeh abb kahan

--------------------------------------------------------------------

Guitar Solo:

|----------------------------10-------------|
|-8-10-12-12--12s8-10--10h12----12s10-------|
|-------------------------------------------|
|-------------------------------------------|
|-------------------------------------------|
|-------------------------------------------|

|-------------------------------------------10---|
|-10s8-8-------------------------------10h12-----|
|---------9s11~-11-11-9-9h(late)11~-9-7----------|
|------------------------------------------------|
|------------------------------------------------|
|------------------------------------------------|

|-------------------------------------------|
|-12p10-10s8-7h9-5s10-----------------------|
|-------------------------------------------|
|-------------------------------------------|
|-------------------------------------------|
|-------------------------------------------|

40
--------------------------------------------------------------------

D.................G........
Kyun so gaye shamain

D................G........
kat na sakain raatien

41
CHORDS: Hothon se choo lo tum..e.n.J.o.Y..!!
This is an earnest effort and i didnt seek any1z help..i'd like to give the credit to BJR who taught me the
funda of scales...and thats how it helped me figure out the chords of this b'ful song..

Here are the chords..enjoy!!

A-----------------------E--
Hothon se choo lo tum

---------Bm----------A----
mera geet amar kar do

A-----------------E----
ban jao meet mere

--------Bm------------A---
meri preet amar kar do

C#m----------------A-----
jag ne cheena mujhse..

----C#m-------------A---
mujhe jo bhi laga pyara

C#m---------------A----
sab jeeta kiye mujhse

---C#m------------A------
mein har dam hee hara

F#m--------------E------
tum haar ki dil apnaa

---------------------A----
meri jeet amar kar do

hothon se choO lo tum


mera geet amar kar do
ban jao meet mere
meri preet amar kardo

akaash ka sunaapan
mere tanha man mein
payal chankaati tum
aajao jeevan mein
nayi reet chala kar tum
yeh reet amar kar do

42
[C H O R D S]

G* Em* C* D*
-3- -3- -3- -3-
-3- -3- -3- -3-
-0- -0- -0- -2-
-0- -2- -2- -0-
-2- -2- -3- -x-
-3- -0- -x- -x-

Into
G* Em* C* D*

(let me be your hero)

G*
Would you dance,
Em*
If I asked you to dance?
C*
Would you run,
D*
And never look back?
G*
Would you cry,
Em*
If you saw me crying?
C* D* G*
Would you save my soul tonight?

Would you tremble,


If I touched your lips?
Would you laugh,
oh please tell me this.
Now would you die,
For the one you love.
Hold me in your arms tonight.

G D C
I can be your hero baby.
G D C
I can kiss away the pain.
G D C
I will stand by you forever.
G D C
You can take my breath away.

Would you swear,


That you'll always be mine?
Would you lie,
would you run back?
Am I in too deep?
Have I lost my mind?
I don't care, you're here tonight.

I can be your hero, baby.


I can kiss away the pain.
I will stand by you forever.
You can take my breath away.

43
Tab + Chords Submission : I want it that way - Backstreet Boys
Here we go....

--------------------------------------------------
------0-------1p0----------0--------3-------------
--------0---------0---------------0---0-----------
---2------2-------------2-------0-----------------
----------------------3---------------------------
-0---------------------------3--------------------
............................yeah.......

--------------------------------------------------
------0-------1p0----------0--------3-------------
--------0---------0---------------0---0-----------
---2------2-------------2-------0-----------------
----------------------3---------------------------
-0---------------------------3--------------------
.......................................You are...

--------------------------------------------------
------0-------1p0----------0--------3-------------
--------0---------0---------------0---0-----------
---2------2-------------2-------0-----------------
----------------------3---------------------------
-0---------------------------3--------------------
..............My ...fire...............The one.

--------------------------------------------------
------0-------1p0----------0--------3-------------
--------0---------0---------------0---0-----------
---2------2-------------2-------0-----------------
----------------------3---------------------------
-0---------------------------3--------------------
......................Desire.........Believe...

--------------------------------------------------
------0-------1p0----------0--------3-------------
--------0---------0---------------0---0-----------
---2------2-------------2-------0-----------------
----------------------3---------------------------
-0---------------------------3--------------------
...............When ..I .....Say...

------------------------2-----3-------------------
------0-------1p0-------3-----3-------------------
--------0---------0-----2-----4-------------------
---2------2-------------------5-------------------
------------------------------5-------------------
-0----------------------------3-------------------
..........I ..want ....it(D) that(G) way...

But (Em)we are (C)two (G)worlds (Em)apart

Can't (C)reach (G)to your (Em)heart

When (C)you (G)say

That (Em)I want it (D)that (G)way

Tell me (C)why Ain't nothin' but a (D)heart(G)ache

Tell me (C)why Ain't nothin' but a (D)mis(G)take

Tell me (C)why I never wanna (D)hear you (G)say

(Em)I want it (D)that (G)way

44
Am I(Em), your (C)fi(G)re

Your(Em) one (C)desi(G)re

Yes (Em)I know it's (C)too (G)late

(Em)I want it (D)that (G)way

Tell me (C)why Ain't nothin' but a (D)heart(G)ache

Tell me (C)why Ain't nothin' but a (D)mis(G)take

Tell me (C)why I never wanna (D)hear you (G)say

(Em)I want it (D)that (G)way

(Em)Now I can see that we're falling apart

(Em7)From the way that it used to (C)be, (G)yeah

(Em)No matter the distance

I want you to know

(Em7)That deep down inside of (G)me...

You are my fire


The one desire
You are
You are, you are, you are

45
A--------------------Bm-
Tere jaisa yaar kahan
E-------------------A---
Kahan aisa yaarana
A-----------------Bm--
Yaad karegi duniya
E----------------A---
Tera mera afsana

A-------------------------
Meri zindagi sawaari
A----------------------
Mujhko gale lagake
D-----------------------
Baitha diya falak pe
E----------------------A----
Mujhe khaak se oothake
A-------------------Bm-
Yaara teri yaari ko
E-----------------------A--
Maine to khuda mana
A------------------Bm-
Yaad karegi duniya
E----------------A----
Tera mera afsana

A--------------------------
Mere dil ki yeh dua hai
A---------------------------
Kabhi door tu na jaaye
D----------------------
Tere bina ho jeena
E-----------------------A---
Woh din kabhi na aaye
A-----------------------Bm-
Tere sung jeena yahan
E-------------------A----
Tere sung mar jaana
A------------------Bm--
Yaad karegi duniya
E----------------A---
Tera mera afsana

A--------------------Bm-
Tere jaisa yaar kahan
E-------------------A---
Kahan aisa yaarana
A-----------------Bm--
Yaad karegi duniya
E----------------A---
Tera mera afsana

46
Garam Masala - Ada (chords)
Ada aaye haye Ada
Am

Hosh udaye Ada


G

Karde deewana
Am

Ada janleva Ada


Am

Katilana Ada
G

Mar dalena
Am

Awaara yahan dil kitne


CD

Huye lapata aaaa


GC

Ada.............
Am

47
Lagi tum se mann ki lagan

D..............A................................
Lagan lagi tum se mann ki lagan

A..................E...........E/C#...........A
Gali gali ghoome, dil tujhe dhoonde

E.........................A...
Tere bin tarse nayan

48
Musu Musu haasi deyo malailai
GD

Musu Musu haasi deyo


DG

Zara muskura de muskura de


GD

Zara muskura de aye khusi


DG

Gum batle tu apne


GD

Humse tu le hasi
CG

Hogaye hum ab tere


GD

Tu hogai apni
CG

Musu.........

Mana humse ho gai ek chhoti si khata


G Em D

Hasdo na tum zara dona humko yun saza


DG

Tum jo has pade to ab humbhi muskuraye


CG

Aao milke saath gaye Dil se dil bhi milaye


DG

Musu.............

49
dil keh raha hain-kyun ki
G
dil keh raha hain tujhse yu rishta
Am7
jod lu
Am
teri dhadkano ko chu lu
CG
tera jism odh lu - 2

rest of the song uses same chords

dil keh raha hain - 2 tujhse yu rishta jod lu


teri dhadkano ko chu lu tera jism odh lu - 2
dil keh raha hain tujhse yu rishta jod lu
teri dhadkano ko chu lu tera jism odh lu

aankhon mein teri hain mera he chehra


chahe tu yeh maane ya na maane
teri mohabbat pe hain mera pehra
chahe tu yeh jaane ya na jaane
tere liye main jaate hue lamho ko mod lu
teri dhadkano ko chu lu tera jism odh lu

bechaini ko chain tune diya hain


bin tere mushkil hain reh paana
ho paana hain tujhko hain yeh tay kar liya hain
tu hain ishq mera jaane jaana
tere labo se pyar ki kaliya tod lu
teri dhadkano ko chu lu tera jism odh lu
dil keh raha hain tujhse yu rishta jod lu
teri dhadkano ko chu lu tera jism odh lu

50
The intro is in the A MAJOR SCALE
PLAY THE TAB THRICE

E ------------------|
B -------0----------|
G -----0---0-2-2-2--|
D ---2--------------|
A -4----------------|
E ------------------|

THE HMMMMMMMM PART ....

Hmmmmmmmmmmm Hmm Hmm Hmmmmmmmmm Hmm Hmm Hmmmmmm


A--------------------G------------------Am-----

After this the song becomes a MINOR SONG

The chords are simple

The line
O Mere Di l Ke Cha in i s Am i n pos i t i on (012200) wi th grace no tes as f o l l ows :

When he sus ta ins O Me-reeeeeeeeeeeeeee


- - - - - - - - - - - - - - - - - - - - - - 1 - - - - 2 - - - (3 ) - - - 4 -

You p lay Am and on the 3rd count wi th the l i t t l e f i nger p lay the F no te
(D s t r i ng 3rd f re t )

The s top i s on G, and the l i ne Cha in Aaye


dilMere
ko dua ki jiye is
G and Am in the end

So its like this

O Me-reeeeeeeeeeeeeeeeeeeeeeeeeeeeee
-----Am-----------------Am(F)-----Am

Dil ke chainnnnnnnnnnnnnnnnnnnnnnnnnnn
Am-------------------------------------

O Me-reeeeeeeeeeeeeeeeeeeeeeeeeeeeee
----Am------------------Am(F)-----Am

Dil ke chainnnnnnnnnnn stop


Am-------------------- G

Chain Aaye mere dil ko dua ki jiye


G-------------------------------Am

O mereeeeeeeeeeeeeee
Am------------------

ANTRA

Apna hi saaya dekh ke tum


Am------------G----------

Jaane jahan sharmagaye


F---------------Am--------

Abhi to yeh pehli manzil hai


Am-----------------G---------

Tum to abhi se ghabra gaye


F------------------Am-------

Mera kyaaaa ho gaaaaa


-----Am--------C------

Socho oooo to zaraa------stop

51
--G------------Am---G F Am

Haay aise na aahen bhara ki jiye


G------------G----------------Am—

Dil ko tumse pyar hua


Am Dm G

Pehli baar hua tumse pyar hua


C F G C E7

mein bhi aashiq pyar hua


Am Dm G

Pehli baar hua tumse pyar hua


C F G C E7

chahi hey
Dm Am
betaabi
Dm Am

meri jaan kaho mein kya karu


Bb F E7sus4 E

chahi hey
Dm Am
betaabi
Dm Am

meri jaan kaho mein kya karu


Bb F E7sus4 E7

(guitar lead starts with last two bars)


---<<p/>srgm/pdpm/grsr/
g---/m-p-/----/--pd/
n(>s<n)dp/mpps/srr-/--rg/
gmmp/p->ss/---r/r---/
rmgr/sgrs/<np-p/pdpm/
(vocal joins in) p---/

Antara 1:

52
Am/%/%/%/%/%/%/%/
Am/G/F/E7/Am/G/F/E7
-/-/-/-/

(inter2)

(fast rhythm)
Am/%/%/%/%/%/%/%/

(Strings)
Am/Em/F/C/Dm/Dm7/G/E7
(vocals + guitar)
g-m-p---/g-m-p---/
g-m-pn-nb/-d-p----/
(above twice)
(chords during vocal+guitar)
A5/G5/F5-F#5/F5-A5/ (twice)

1. Allah ke bande

chords used:
G# :466544
A#m:688666
B#m:335543
C# :446664
D# :365343
F# :x44322
Gm :244222
E :476454
E#m:446564

stan1:
G#---------------------A#m----------------G#
toota toota ek parinda aise toota ki phir jud na paaya
G#---------------------A#m----------------G#
loota loota kisne usko aise loota ki phir ud na paaya
G#-----------B#m-------C#-----------D#
girta hua wo aasman se aakar gira zameen par
G#-----------------------------------------------A#m
khwabo mein phir bhi baadal hi the wo kehta raha magar ke

G#-------B#m----------C#-------D#
allah ke bande hasdey allah ke bandey
G# ------B#m-----------C#------------D#
allah ke bandey hasdey jo bhi ho kal phir ayega

53
music1:
chords
G#-E-F#- (2 times)

stan2:
F#---------Gm-----G#---------------A#m
khoke apne par hi to usne tha udna sikha
F#---------Gm-----G#
khoke apne par hi to hoooooo
F#---------Gm-----G#---------------A#m
khoke apne par hi to usne tha udna sikha
E------Gm---A#m
gam ko apne sath me lele dard bhi tere kaam ayega

G#-------B#m----------C#-------D#
allah ke bande hasdey allah ke bandey
G# ------B#m-----------C#------------D#
allah ke bandey hasdey jo bhi ho kal phir ayega

music2:
G#-E-G#-E#m-C#-D#

stan3:
F#----------Gm------G#-------------------A#m
tukde tukde ho gaya tha har sapna jab wo toota
F#----------Gm------G#-------------------A#m
tukde tukde ho gaya tha har sapna jab wo toota
E------Gm----A#m
bikhre tukdo mein allah ke marzee ka manzar payega

G#-------B#m----------C#-------D#
allah ke bande hasdey allah ke bandey
G# ------B#m-----------C#------------D#
allah ke bandey hasdey jo bhi ho kal phir ayega

stan4:
repeatstan1

G#-------B#m----------C#-------D#
allah ke bande hasdey allah ke bandey
G# ------B#m-----------C#------------D#
allah ke bandey hasdey jo bhi ho kal phir ayega

--------------------------------------------------------------------------

54
2.Bheegy Hont tere -Murder

Chords used:
D# :365321
B#m:335521
E#m:446564
G# :466544

Stan1:
-------D#--------------B#m
Bheegy honth tere pyaasa dil mera
-----E#m-------G#----------D#
lage abra saaaahaaa mujhe tan tera
-------D#-------------B#m
chamke barsaatein mujhpar ghataaein
-----E#m--------G#-------D#
tuhi meri pyaaaaaas tuhi mera jaaan

B#m----------E#m------B#m--------D#
kabhi mere saaaaaath koi raat guzaar
B#m-----------E#m----------G#------D#-------G#
tujhe subha tak meeeeeeeein karo pyaa aaahaaar

------D#------G#m-------D#----B#m
wo oh ooooooh wo oh ooooh yeeeeee
------D#------G#m-------D#
wo oh ooooooh wo oh ooooooh

stan2:
--------D#-----------B#m
saasein aaj teri tanhaag tera
-------E#m--------G#-----------D#
chenee neend meri yeeeee loote chain mera
------D#---------------B#m
kaala jaado tere lambe baal tere
---------E#m--------G#----------D#
aankhein jheel teri eeeeee dore laal tere

B#m----------E#m------B#m--------DC#
kabhi mere saaaaaath koi raat guzaar
B#m-----------E#m----------G#------D#--------G#
tujhe subha tak meeeeeeeein karo pyaa aaahaaar

------D#------G#m-------D#----B#m
wo oh ooooooh wo oh ooooh yeeeeee
------D#------G#m-------D#
wo oh ooooooh wo oh ooooooh

55
stan3:
--------D#-------------B#m
ankhein keh rahi jo na hum kehein
----E#m-------G#-----------D#
use sun le tu uuuuuu jo na labh kahein
------D#-----------B#m
tu na soya mein na soya
------E#m--------G#----------D#
tujhe dekhoo aaaaaa tujhmein khooo aa

B#m----------E#m-------B#m--------DC#
kabhi mere saaaaaath koi raat guzaar
B#m-----------E#m----------G#------D#--------G#
tujhe subha tak meeeeeeeein karo pyaa aaahaaar

------D#------G#m-------D#----B#m
wo oh ooooooh wo oh ooooh yeeeeee
------D#------G#m-------D#
wo oh ooooooh wo oh ooooooh

sanlast:
-------D#--------------B#m
Bheegy honth tere pyaasa dil mera
-----E#m-------G#----------D#
lage abra saaaahaaa mujhe tan tera
-------D#-------------B#m

--------------------------------------------------------------------------
3.Kal ho na ho-Kal ho na ho

chords used:
C# :446664
E#m:446564
G# :466544
F# :244322
B :224442
D#m:224342

stan1:
C#-----------------------E#m-------G#
Har ghadi badal rahi hai roop zindagi
C#------------------------E#m--------G#
chao hai kabhi, kabhi hai dhoop zindagi

56
--------F#------------C#
har pal yaha jee bhar jiyoo
--------F#-----B-----------C#
jo hai samaaaaaa kal ho na ho

stan2:
G#----------D#m-----C#
chahe jo tumhe pure dil se
G#--------D#m-----C#
milta hai wo mushkil se
G#------D#m---C#
aisa jo koi kahi hai
G#-------D#m------C#
bas wohi sabse hasin hai
--------F#----------C#
us hath ko tum tham lo
--------F#----B------------C#
wo meharbaaaaan kal ho na ho

--------F#------------C#
har pal yaha jee bhar jiyoo
--------F#-----B-----------C#
jo hai samaaaaaa kal ho na ho

stan3:
G#----D#m-----C#
palko gile jo sayein
G#---D#m----F#
paas koi jo aayein
G#---D#m------G#-----D#m
lakh sambhalo paagal dil ko
G#------D#m---C#
dil dhadke hi jayee
--------F#------------C#
par sochlo is pal hai jo
-------F#-----B-----------C#
wo daastaaaaaan kal ho na ho

repeat stan1

--------------------------------------------------------------------------
4.suno na-Jhankaar beats

chords:
Dm:113231
A#:113331

57
C :332020

chords:

stan1:
Dm...........A#...........
dil ne tumko chun liya hai
C......................A#..Dm........A#........
tum bhi isko chuno naa khwab koi dekhta hai
...............C.............Dm..
tum bhi sapney buno naa
.......C.........................Dm........
dil ye mera tumse kuch kehra hai suno naa

stan2:
....C....................Dm...
dur ho kar bhi dur tum nahi ho
.....C...................Dm...
paas ho lekin pas kyun nahi ho
C...........Dm....C...........Dm...
tanha tanha samaa mehki mehki hawaa
C...................................Dm..
keh raha hai jahaan joooo suno naa

repeat stan1

stan3:
....C...............Dm........
dekhlo mausam kitna suhana hai
.....C...............Dm........
pyar karne ka ye koi bahana hai
C.........Dm...C.........Dm...
muskurati fiza gungunati hawaa
C....................................Dm..
keh raha hai jahaan jooooo suno naa

repeat stan1:

.......C.........................Dm........
dil ye mera tumse kuch kehra hai suno naa

--------------------------------------------------------------------------

5.song:mere sapno ki rani-aaradhana

58
chords:
Cm:335543
A#:113331
G#:466544
D#:365343

stan1:
.....Cm.......A#.......Cm......
mere sapno ki rani kab ayegi tu
...Cm.....A#........G#......
ai rut mastanee kab ayegi tu
......Cm.........A#.......D#......
beeti jayee zindagani kab ayegi tu
......A#............Cm.
chale aaa tuu chale aaa

repeat stan1:

stan2:
Gm................Cm..A#
pyaar ki galiyan
Gm................Cm..A#
bago ki galiyan
A#...............D#......Cm.....
sab rang raliyan pooch rahi hain
Cm..............................
pyaar ki galiyan bago ki galiyan
A#...............D#......Cm.....
sab rang raliyan pooch rahi hain
A#......................Cm.........
geet panghat pe kis din gaaayegi tu

repeat stan1

stan3:
Gm...............Cm..A#
phool si khilke
Gm...............Cm..A#
paas aa dil ke
A#............D#....Cm..
door se milke chain ayee
Cm............................
phool si khilke paas aa dil ke
A#............D#....Cm..
door se milke chain ayee
A#....................Cm........
aur kab tak mujhe tad-paayegi tu

repeat stan1

59
stan4:
Gm................Cm..A#
kya hain bharosa
Gm.............Cm..A#
aashiq dil ka
A#..........D#...Cm....
aur kisi pe ye aajayein
Cm............................
kya hain bharosa aashiq dil ka
A#..........D#...Cm....
aur kisi pe ye aajayein
A#.................Cm.......
agaya to bahut pachtayegi tu

repeat stan1 twice


......A#............Cm.
chale aaa tuu chale aaa
......A#..............Cm.
chale aaa aa tu chale aaa

60
DARD-E-DIL - Karz (CHORDS)
Sign -
[/ G / D / D7 / G] - (2)

Cross -
[/ G. C. / Em. C. / ] - (2)
/ G. D. / D7 stop /

Repeat Sign once

Music 1 -
[/ G. C. / G/ ] - (2)
/ G. B. / Em . D. / D7 / G /
Bangs before guitar solo are F C G (4) times
Guitar solo tab

E--------------------------------
B--------------------------------
G-------3/4-4--------------------...........Repeat this 4 times
D-3/5-5-------3/5-5--------------...............in a fading out
A---------------------3/5-5------...................manner
E----------------------------3---

Antra 1 -
[/ G . C. / G. D. / G / C. G/] - (2)
/ G. D7. / D7 / D7. G. / D. G. /

Repeat Cross & Sign Once

Music 2 -
Dont remember much but its Em through the sax solo

Antra 2 -
/ G / G / B. Em. / C. G./
/ D / D7. G. / D. D7. / D7. G. /

Repeat Cross & Sign Once

Antra 3

[/ G / C / C / G /] - (2)
/ C. G. / G / D7 / G /
Repeat Cross

Repeat Sign complete & Cross Complete


Sign to end

For example the first antra:


Numbers are BARS

....(Aap ki madhosh nazren


1..................2................
G......C..........G......D..........

Kar rahi hai shayari - twice)


3...............4......................
G...............C.........G...............

Yeh Ghazal meri nahi

61
1...............2............
G.......D7.....D7...........

Yeh ghazal hai aapki


3...................4..............
D7....G...........D........G.....

DHOOM PICHUCK

Intro: Dhoom pichuck dhoom pichuck dhoom….


G5
Aa re meri dhadkan aa re
Chaand ke hain sang sitaare
GF
Verse1: Hey-e-ey aa re meri dhadkan aa re,
GF
Chaand ke hain sang sitaare
G A# C
Saath rehtein hain woh saare main akela re.
GFGF
Khilkhilaati hain woh nadiyaa, nadiyaa mein hai ek naiyaa,
G Bb C
Naiyaa ka main hoon khiwaiyyaa kyon akela re
G
Ab aa bhi jaa sab ko bataa kya tera mera naataa re
Bb F
Ch1: Tum ho meri main tumhaara
Gm F
Chhotaa sa sansaar humaaraa
Gm F G
Aage jaane Ram kyaa hogaa
Bb F
Kehtaa hai jo kahe zamaanaa
Gm F
Tera mera pyaar puraanaa
Gm F G
Aage jaane Ram kyaa hogaa
G Gsus4 G Gsus4
Verse2: Jaise diyaa aur baati, saare sukh dukh ke hum saathi
G F Bb C
Behki purvaiyaa hai gaati main tumhaaraa re
G Gsus4 G Gsus4
Ho…Raat meri din hain tere, Tere aansun ab hain mere
G F Bb C
Pyaar ke honge sawere na ghabraanaa re
G
Ab na sharmaa sab ko bataa kya tera mera naataa re
Bb F
Ch2: Tum ho meri main tumhaara
Gm F
62
Chhotaa sa sansaar humaaraa
CFG
Aage jaane Ram kyaa hogaa
Bb F
Mera dushman saaraa zamaanaa
Gm F
Tera mera pyaar puraanaa
C FG
Aage jaane Ram kyaa hogaa
Interlude on G

Bridge: Hey maajhi re, tohaar bina mor jibone neyi mane
F
Phire aasi ja tui mor kaase
C G Bb
Jaton kore rakhiboho tohke mor booker moddhe maajhi re
G
Maajhi re
C
Aa bhi jaa aa bhi jaa saanse meri pukaare har din
GFC
Aa bhi jaa na sataa nahi jeenaa tere bin
Repeat ch2: chords
Ch3: Kyonki tum ho meri main tumhaara
Chhotaa sa sansaar humaaraa
Aage jaane Ram kyaa hogaa
Kehtaa hai jo kahe zamaanaa
Tera mera pyaar puraanaa
Aage jaane Ram kyaa hogaa
GC
Aa bhi jaa Aa bhi jaa Aa bhi jaa Aa bhi jaa (x2)
Repeat Ch3 chords
Ch4: Kyonki tum ho meri main tumhaara
Chhotaa sa sansaar humaaraa
Aage jaane Ram kyaa hogaa
Kehtaa hai jo kahe zamaanaa
Tera mera pyaar puraanaa
Aage jaane Ram kyaa hogaa
Aage jaane Ram kyaa ho Aage jaane Ram kyaa ho
Aage jaane Ram kyaa hogaa
Aage jaane Ram kyaa ho Aage jaane Ram kyaa ho
Aage jaane Ram kyaa hogaa
Tum ho meri main tumhaara
Chhotaa sa sansaar humaaraa
Aage jaane Ram kyaa hogaa
Mera dushman saaraa zamaanaa
Tera mera pyaar puraanaa
Aage jaane Ram kyaa hogaa
Aage jaane Ram kyaa hogaa
Aage jaane Ram kyaa ho Aage jaane Ram kyaa ho
Aage jaane Ram kyaa hogaa

63
Aage jaane Ram kyaa ho Aage jaane Ram kyaa ho
Aage jaane Ram kyaa hogaa

MUKHDA
==============

First time the full para is with single stroke on every beat
Note: Play the chord exactly as per the syllable under which it is placed

Ek Main Aur Ek Tu
A---A-----A----A--E--E_E_E_

Dono Mile Is Tarah


E--E----E--E----A_A_A_A_

Ek Main Aur Ek Tu
A--A----A---A--E--E_E_E_

Dono Mile Is Tarah


E--E----E--E---A___A_A_A_

Aur Jo Tan Man Mein Ho Raha Hai


D------A-------E---------A---E---

Woh To Hona Hi Tha


D------E-------A--------

==============
ANTRA
==============

Yoooooon Nahiiiiiiiiiiiiii
A----------A------------

Milte Hain Yaar Yaar Se


D--------------------A---

De-eeeeee Mujhe-eeeeeeeeee
A-----------A--------------------

Pyar Ka Jawab Pyar Se


D------------------A-------------

Dhadkane Hui Jawan


Esus4-----------------------

Waqt Bhi Hai Meherban


Esus4-----------------------

Phir Yeh Kaisi Dooriyan


Esus4-----------------------

Bolo Bolo Bolo Bolo Bolo stop


A-----------------------------

The Esus4 chord is 002200


When you play this part in the song, play a down-up arpeggio

COUNT ========== 1-2-3-4-5-6-


STRINGS NUMBER === 4-3-2-1-2-3-
NOTES =========== E-A-B-e-B-A-

64
F.................................
Sach mere yaar hai
.............................
haa wohi pyaar hai
..........Dm..............Bb.......F.....C...
jisake badale me koi to pyaar de
F......................................
baki bekaar hai yaar mere
.......................
hoo yaar mere
F.............................................
Jis haath me ...ek haath hai
..............C...................F........
Us haath ki......kya baat hai
F.............................................
kya faasle kya manzile
........C..................F.............
ek humsafar agar saath hai
.........Dm...... .Bb....F......C..
jisaki kismat koi sawar de
F.......................................
wohi dildaar hai yaar mere
F......................
hooo yaar mere.

3rd stanza
F.............................................
Sunate the hum... Ye jindagi
..............C...................F........
Gum aur khushi Ka khel hai
F...........................................
Hum ko magar ....aaya najar
.....C...............F........
ye jindagi wo khel hai
......Dm..........Bb........F....C.....
koi sub jeete sab koi haar de
F.........................................
Apni to haar hai yaar mere
F......................
haaa yaar mere
F..........................
sach mere yaar hai

65
Am G Em Am
Addiyan ton ki paiyan jhanjara laung mare lashkare

Am G Em Am
Addiyan ton ki paiyan jhanjara laung mare lashkare

Am G Em Am
Kangna tera ni sanu kare ishaare

Am G Em Am
Kangna tera ni sanu kare ishaare

Am G
Kangne de wich lage nag satrange nee

Em Am
Kale kale aashiqan to dil ehe mange nee

G Em
Kangne de wich lage nag satrange nee

G Em
Kale kale aashiqan to dil ehe mange nee

Am G Em Am
Apne es kagne nu saam ke rakh mutiyaare

66
Few points:
1. The strumming pattern changes during the song 3-4 times. I don't know how to write
strumming patterns so help is welcome.
2. NC is "no chord" or a brief pause
3. All chords should be played as bar chords. If you have difficulty in playing bar chords
right now, you can play on the scale of Dm (played on first three frets) after tuning
your guitar one note down on D instead of E. (not really recommend).
4. If you use Dm...substitute like this, Dm for Cm, Bb for Ab, A for G, and C for Bb
5. I have tried my best to put chords where they change, you are welcome to use your own
judgment

Intro

Ab, G, Cm

(you can repeat Ab and G once before moving to Cm)

(played with continuous fast up and down strokes at each chord pausing for a sec before
moving to next chord)

Song starts

(play this line with continuous up/and down strokes without breaking between chords)

NC.........G...................Ab
Ik Hasiinaa Thii, Ik Diivaanaa Thaa

G..........................Ab..... G...... Ab...Bb.....Cm


Kyaa Umar, Kyaa Samaa, Kyaa Zamaa..naa Thaa..aaaa...aaa ...

67
(In actual song lead guitar plays with chords in background for the above part)

Cm..........G.............................................Ab
Ik Hasiinaa Thii (hasina thi), Ik Diivaanaa Thaa (divaana tha)

G..........................Ab..... G.... Ab...Bb.....Cm


Kyaa Umar, Kyaa Samaa, Kyaa Zamaa..naa Thaa..aaaa...aaa ...

NC........Ab...............G
Ek Din Vo Mile, Roz Milane Lage

G.............Ab.................G.
Phir Muhabbat Huii, Bas Qayaamat Huii

NC...Cm
Kho Gaye Tum Kahaa.N, Sun Ke Ye Daasataa.N

Cm
Log Hairaan Hai.N, Kyo.N Kii An_Jaan Hai.N

Cm.............Ab..................G.......
Ishq Kii Vo Galii, Baat Jisakii Chalii

Cm (Strum the strings with a hard first stroke)


Us Galii Me.N Meraa Aanaa, Jaanaa Thaa

Cm............G.........Cm.................
Ik Hasiinaa Thii, Ik Diivaanaa Thaa ...

Cm
Kyaa Umar thi, Kyaa Samaa tha, Kyaa Zamanaa Thaa

Cm............G.........Cm.................
Ik Hasiinaa Thii, Ik Diivaanaa Thaa ...

(strumming changes for the following part, single down strokes,


lift you left hand before completion of each stroke)

NC..............G.........................................
Us Hasiin Ne Kahaa, Us Hasiin Ne Kahaa, Suno Jaan\-E\-Vafaa

G
Ye Falaq Ye Zamii.N, Tere Bin Kuchh Nahii.N

...........Ab.........G.......Ab.................G......
Tujhape Maratii Huu.N Mai.N, Pyaar Karatii Huu.N Mai.N

.......Ab.......G........Ab.........G
Baat Kuchh Aur Thii, Vo Nazar Chor Thii

NC................Ab.....G................Cm (change strumming pattern at the beginning of this line)


Usake Dil Me.N Chhupii, Chaahat Aur Garzii Thii

Cm (Strum the strings with a hard first stroke)


Pyaar Kaa, To Faqat, Ik Bahaanaa Thaa

68
Cm............G.........Cm.................
Ik Hasiinaa Thii, Ik Diivaanaa Thaa ...

NC.........Ab.................. (just play chord from top to down slowly, not as one stroke)
Bevafaa Yaar Ne, Apane Mahabuub Se

Csus2
Aisaa Dhokhaa Kiyaa
- Dhokhaa, Dhokhaa, Dhokhaa, Dhokhaa -

Csus2................Csus2
Aisaa Dhokhaa Kiyaa, Zahar Usako Diyaa
- Dhokhaa, Dhokhaa, Dhokhaa, Dhokhaa -Dhokaaaaaaaaa

Lead (copied from another post by bandbaajaa)


E |----------------------------------------------------------------------------------|
B |---3---3--4---3---3--4---3---3--4----------------3----------3---1h3-------|
G |-----5----------5----------5------5---5--5--2--5---4---4--5----------5-5--|
D |--------------------------------------------------------------------------|
A |--------------------------------------------------------------------------|
E |--------------------------------------------------------------------------|

Cm
Roo roo roo roo...roo roo roo roo.. roo roo roo roo rooooooo

Cm...................G.................Cm
Roo roo roo roo roooooooo....ru ru ru rooo rooooo

Ab..........G
Mar Gayaa, Vo Javaa.N

.....Ab....G....Cm
Ab Suno Daasataa.N

Cm..............Ab......................G........
Janm Le Kar Kahii.N, Phir Vo Pahu.Nchaa Vahii.N

G.............Ab................Cm
Shaql An_Jaan Kii, Aqal Hairaan Kii

Cm
Saamanaa Jab Huaa, Phir Vahii Sab Huaa (twice)

.......G.......Cm.........G........Cm.......
Usakaa Ye Farz Thaa, Usape Ye Qarz Thaa

Cm............ Ab.....G....Ab...Cm
Farz Ko, Qarz Apanaa, Nibhaanaa Thaa

Ab........G..........Cm
Laaaa...Laaaa....Laaaaa

Cm
La la la la....la la la la...la la la la laaaaaaa

Cm...........G......................Cm

69
La la la la laaaaaa.....la la la laaaa..laaaa

D………G……D…………G…..A….
Yaaron, dosti bari hi haseen hai
………D……G………..D……………….G...A..
Ye na ho to, kya phir, bolo yeh zindagi hai
…...Bm……..G….
Koi to ho razdaar
…….D…………..Em..
Begaraz tera ho yaar
…..Bm………..D……
Koi to ho raazdaar *

70
D……….G…………D…………..G….A…
Yaaron, mohabbat hi to bandagi hai
………D……G………D………………..G..A…
Ye na ho to kya phir bolo yeh zindagi hai
…..Bm………….G…..
Koi to dilbar ho yaar
D………………..Em…
Jisko tujhse ho pyar
…..Bm………….D…..
Koi to dilbar ho yaar *

Bm……..F#m……….G…………….D….
Teri har ek buraee pe dante woh dost
Bm…………..F#m…………………G…………..D…….G
Gham ki ho dhoop to saaya bane tera woh dost
G……………….D………..A…….
Nache bhi woh teri khushi se

D………G……D…………G…..A….
Yaaron, dosti bari hi haseen hai
………D……G………..D……………….G...A..
Ye na ho to, kya phir, bolo yeh zindagi hai
…...Bm……..G….
Koi to ho razdaar
…….D…………..Em..
Begaraz tera ho yaar
…..Bm………..D……
Koi to ho raazdaar *

Bm………….F#m……….G……………D…
Tanman kare tujhpe fida mehboob woh
Bm……….F#m………….G……………D…………G
Palkon pe jo rakhe tujhe mehboob woh
G………..D………..A……
Jiski wafaa tere liye ho

D……….G…………D…………..G….A…
Yaaron, mohabbat hi to bandagi hai
………D……G………D………………..G..A…
Ye na ho to kya phir bolo yeh zindagi hai
…..Bm………….G…..
Koi to dilbar ho yaar
D………………..Em…
Jisko tujhse ho pyar
…..Bm………….D…..
Koi to dilbar ho yaar *

*Filler riff :

E|----------5-------2------1p0-------------------------------------------
A|--------------------------------------3---------------------------------
D|------------------------------------------------------------------------
G|------------------------------------------------------------------------
B|------------------------------------------------------------------------
E|------------------------------------------------------------------------

Song : LAMHA LAMHA


Movie : Gangster(2006)
Music : Preetam
Singers : Abhijeet and Sunidhi Chauhan
Intro: <<This is basically a strumming on Cmaj7(032013)>>

|--------3-e

71
|------1---b
|----0-----g X4
|--2-------D
|-3--------A
|----------E

Verse1:

<<For the first two lines of this Verse strum Cmaj7 and F on the
above pattern.>>

Cmaj7 F
Lamha lamha doori yun pighalti hai
Cmaj7
Jaane kis aag me yeh shabnam jaalti hai

<<From here strumming pattern changes to |d - u u | d - u u|>>

Cmaj7 F
Lamha lamha doori yun pighalti hai
Cmaj7
Jaane kis aag me yeh shabnam jaalti hai

Verse2:

<<|d - u u | d - u u| continues ... Play C and G on bar chords for


exact sound.>>

C G
Khwahishoon ki sham dhalti hai
C G
Khwahishoon ki sham dhalti hai

<<Originally there is no chords against the last line ... just a |


ting-ting -|ting-ting -| on 1st string 3rd fret ... but also can be
played on F and C>>

F C
Jaane kis aag me yeh shabnam jaalti hai

<<Strum following the beats ...>>

C Am F Cmaj7
La la la la la la la la la la la la
C Am F Cmaj7
La la la la la la la la la la la la
C Am F Cmaj7
La la la la la la la la la la la la

Chords against Mandolin Solo: C G F C

Verse3:

<<Again |d - u u | d - u u| from here ... Play C and G on bar chords


for exact sound.>>

C Am

72
Teri aankhein dikhati hai
F G C
Hamein sapne sitaron ke ... O ho ho ho

C Am
Tere hoton pe likhkha hai
F G C
Jo tum bole isharon main ... O ho ho ho

Cmaj7 F
Khwaabon ke carvan raat chalti hai
Cmaj7
Jaane kis aag me yeh shabnam jaalti hai

<<Strum following the beats ...>>

C Am F Cmaj7
La la la la la la la la la la la la
C Am F Cmaj7
La la la la la la la la la la la la

C G
La la lai lai lai lai lai lai lai la laaaa
F C G
La la lai lai lai lai la lai lai la la la la la la
C G
La la lai lai lai lai lai lai lai la laaaa
F C G C
La la lai lai lai lai la lai lai la la la la la la

Verse4:

<<Chords and strumming pattern same as Verse3.>>

Bahekti shaam aayi hai


Tujhe lekar ke bahon main

Tujhe choolon ke rakhkhoo main


Chupakarke nigahon main

Sharmati itrati hai machalti hai


Jaane kis aag me yeh shabnam jaalti hai

Verse1

Verse2 with the "La la la la ..." part extending till the end ...

Gangster(2006) - Tu Hi Meri Shab Hai (Tabs + Chords ) Accurate !


73
Hey really nice song , tabbed it and played it EnjoY !
and yes , don't forget to add reps if you like my work
Dhanyawad , !

Song: Tu Hi Meri Shab Hai


Movie: Gangster

Tabbed By Sumant Modak

Song

tu hi meri shab hai subha hai ........................................tu hi din hai mera


|------------------------------------------|--------------------------------------|
|-------0---1---0-------0------------------|---------0----1----0------------------|
|---2---------------2-------0-------0---2--|----2-------------------2----0----2---|
|-------------------------------2----------|--------------------------------------|
|------------------------------------------|--------------------------------------|
|------------------------------------------|--------------------------------------|
tu hi mera rab hai jahaan hai ........................................tu hi meri duniya
|------------------------------------------|--------------------------------------|
|-------0---1---0-------0------------------|---------0----1----0------------------|
|---2---------------2-------0-------0---2--|----2-------------------2----0----2---|
|-------------------------------2----------|--------------------------------------|
|------------------------------------------|--------------------------------------|
|------------------------------------------|--------------------------------------|
tu waqt mere liye ................................................ma in hoon tera lamha
|--0--0--0--0--1--0-----3--3--5--3--1-|-----0-----0-----0----------------|
|--------------------3----------------|-----------------------3----p5----|
|-------------------------------------|----------------------------------|
|-------------------------------------|----------------------------------|
|-------------------------------------|----------------------------------|
|-------------------------------------|----------------------------------|
kaise rahega bhala ..............................................hoke tu mujhse judaa
|--0--0--0--0--1--0-----3--3--5--3--1-|-----0-----0-----0----------------|
|--------------------3----------------|-----------------------3----p5----|
|-------------------------------------|----------------------------------|
|-------------------------------------|----------------------------------|
|-------------------------------------|----------------------------------|
|-------------------------------------|----------------------------------|
o o o o ho ho................................................ .................o o o o o o
|-----------0-----------------------0------|--------------0-----------------------|
|---1---3-------3---1---3---3---3-------1--|----1----3---------3----1----0--------|
|------------------------------------------|----------------------------------2---|
|------------------------------------------|--------------------------------------|
|------------------------------------------|--------------------------------------|
|------------------------------------------|--------------------------------------|
Same As Above........................................
tu hi meri shab hai subha hai tu hi din hai mera
tu hi mera rab hai jahaan hai tu hi meri duniya

74
tu waqt mere liye main hoon tera lamha
kaise rahega bhala hoke tu mujhse judaa
o o o o ho ho
oooooo

Stanza 1.

aankhon se padhke tujhe ......................................dil pe maine likha


|--------------------------------------|--------------------------------------|
|----1----0--------------0----0----0---|----0----1----3----3----5----0--------|
|--------------2-----------------------|----------------------------------2---|
|-------------------2------------------|--------------------------------------|
|--------------------------------------|--------------------------------------|
|--------------------------------------|--------------------------------------|
tu ban gaya hai mere .............................................jeene ki ek wajah
|--------------------------------------|--------------------------------------|
|----1----0--------------0----0----0---|----0----1----3----3----5----0--------|
|--------------2-----------------------|----------------------------------2---|
|-------------------2------------------|--------------------------------------|
|--------------------------------------|--------------------------------------|
|--------------------------------------|--------------------------------------|
aankhon se padhke tujhe ......................................dil pe maine likha
|--------------------------------------|--------------------------------------|
|----1----0--------------0----0----0---|----0----1----3----3----5----0--------|
|--------------2-----------------------|----------------------------------2---|
|-------------------2------------------|--------------------------------------|
|--------------------------------------|--------------------------------------|
|--------------------------------------|--------------------------------------|
tu ban gaya hai mere ............................................jeene ki ek wajah
|--------------------------------------|---------------------------------------|
|----1----0--------------0----0----0---|----0----1----3----3----5----0-6-5-3-5-|
|--------------2-----------------------|---------------------------------------|
|-------------------2------------------|---------------------------------------|
|--------------------------------------|---------------------------------------|
|--------------------------------------|---------------------------------------|
teri hasi teri adaa auron se hai bilkul judaa
|---0---0---5---2---0---0---5---2--|---0-------1------------------------------|
|----------------------------------|-------3-------3---1---0---0---1---3------|
|----------------------------------|------------------------------------------|
|----------------------------------|------------------------------------------|
|----------------------------------|------------------------------------------|
|----------------------------------|------------------------------------------|
o o o o ho ho................................................ .................o o o o o o
|-----------0-----------------------0------|--------------0-----------------------|
|---1---3-------3---1---3---3---3-------1--|----1----3---------3----1----0--------|
|------------------------------------------|----------------------------------2---|
|------------------------------------------|--------------------------------------|
|------------------------------------------|--------------------------------------|
|------------------------------------------|--------------------------------------|

75
Stanza2, (Play Just Like Stanza 1)
aankhen teri shabnami chehra tera aaina
tu hai udaasi bhari koi haseen dastaan
ho aankhen teri shabnami chehra tera aaina
tu hai udaasi bhari koi haseen dastaan
dil mein hai kya kuchh toh bata
kyon hai bhala khud se khafa
o o o o ho ho
oooooo

End Part (Play Just Like Intro Part !)

tu hi meri shab hai subha hai tu hi din hai mera


tu hi mera rab hai jahaan hai tu hi meri duniya
tu waqt mere liye main hoon tera lamha
kaise rahega bhala hoke tu mujhse judaa
o o o o ho ho
o o o o o o...

Chords For The Song!


Am.........................Em..................... .....F
tu hi meri shab hai subha hai tu hi din hai mera
Am........................Em...................... .....F
tu hi mera rab hai jahaan hai tu hi meri duniya
Am...........G...................F................ Am
tu waqt mere liye main hoon tera lamha
Am...........G...................F................ Am
kaise rahega bhala hoke tu mujhse judaa
Pause......G
o o o o ho ho
..........Am
oooooo

tu hi meri shab hai subha hai tu hi din hai mera


tu hi mera rab hai jahaan hai tu hi meri duniya
tu waqt mere liye main hoon tera lamha
kaise rahega bhala hoke tu mujhse judaa
o o o o ho ho
oooooo

Stanza 1,

Am...............Em...............G..............A m
aankhon se padhke tujhe dil pe maine likha
Am...............Em...............G..............A m
tu ban gaya hai mere jeene ki ek wajah

76
Am...............Em...............G..............A m
ho aankhon se padhke tujhe dil pe maine likha
Am...............Em...............G..............F
tu ban gaya hai mere jeene ki ek wajah
Am........D
teri hasi
C........D
teri adaa
Em.........G...............Am
auron se hai bilkul judaa
Pause......G
o o o o ho ho
..............Am
oooooo

Stanza 2 (Play Same As Stanza 1)


aankhen teri shabnami chehra tera aaina
tu hai udaasi bhari koi haseen dastaan
ho aankhen teri shabnami chehra tera aaina
tu hai udaasi bhari koi haseen dastaan
dil mein hai kya kuchh toh bata
kyon hai bhala khud se khafa
o o o o ho ho
oooooo

tu hi meri shab hai subha hai tu hi din hai mera


tu hi mera rab hai jahaan hai tu hi meri duniya
tu waqt mere liye main hoon tera lamha
kaise rahega bhala hoke tu mujhse judaa
o o o o ho ho
o o o o o o...

77