You are on page 1of 3

Clases de guitarra NVM

Eso y ms - Joan Sebastin


No olvides ver el tutorial http://www.youtube.com/watch?v=a0Y_BG5UtI&feature=youtu.be ...

Canal de YOUTUBE http://www.youtube.com/user/clasesdeguitarranvm/about


Intro:
e|---0-----0------2-------------5----5----------------------|
B|---0/2---0------3--------3----5/7--5---5--3--2--0/2-------|
G|----------------2------2---------------6--4--2--2---------|
D|---------------------4--------------------------2---------|
A|----------------------------------------------------------|
E|----------------------------------------------------------|
e|---0-----0------2--------2-0---0-----|
B|---0/2---0------3--------3-----2-----|
G|----------------2------2-------2-----|
D|---------------------4---------2-----|
A|-------------------------------0-----|
E|-------------------------------------|

A
Me contaron de Romeo y Julieta y pense
que hermoso cuento
D
y ahora resulta que es mas grande mas bello esto
A
esto que por ti yo siento.
D
Cruzar los montes, los ros, los valles,
A
por irte a encontrar
D|---------------------------------------|
A|--2/4---2--0--2--4-----2-0-------------|
E|---------------------------------------|
D
salvara tormentas, ciclones, dragones
A
sin exagerar.
D|----------------------|

Clases de guitarra NVM


A|--2/4--2--0--2p0------|
E|----------------------|

D
E
Por poder mirarme en tus ojos bonitos
F#m
y vivir la gloria de estar a tu lado
E
porque en m ya siento que te necesito
D A
que me he enamorado.
D
E
Por poder mirarme en tus ojos bonitos
F#m
y vivir la gloria de estar a tu lado
E
porque en m ya siento que te necesito
D A
eso y ms har.
...Se toca el intro igual que al principio....
D
Por asegurar la sonrisa de tu alma
A
buscando equidad,
D
yo podra empear lo ms caro que tengo
A
que es mi libertad.
D
E
y sera un honor ay amor ser tu esclavo
F#m
sera tu juguete por mi voluntad
E
y si un da glorioso en tus brazos acabo
DA
Qu felicidad.
D
E
Si sera un honor ay amor ser tu esclavo
F#m
sera tu juguete por mi voluntad
E
y si un da glorioso en tus brazos acabo
D A

Clases de guitarra NVM


qu felicidad.