Radiohead - Paranoid Android Tabbed by Ajd (Complicateyourwords@Hotmail.com) This Tab

Radiohead - Paranoid Android

tabbed by ajd (complicateyourwords@hotmail.com)
This tab is written so the whole song can be played on one accoustic guitar,
because how many of us are actually in a band with 3 guitarists? For the other
guitars there are plenty of other tabs that will cover them, I'm sure, but none
of them seem to have got the main guitar in the first two minutes quite right. I
have missed out a few (just a few) notes from the tab on the intro and verses,
as they make it so much more complicated to learn, and distract from the main
notes of the song.
Enjoy.

*************INTRO*************
1 + 2 + 3 + 4 + 1 + 2 + 3 + 4 +
1 + 2 + 3 + 4 + 1 + 2 + 3 + 4 +
e|---------------------------------|---------------------------------|
B|-------8---------------8---------|-------8-------------------------|
G|-----------8---------------8-----|-----------8-----------8---8-----|
D|-------------------0-------------|-------------------0-------------|
A|-----x---------0---------------0-|-8---8---8---8-8-0---0-----------|
E|-8-------8---8---6---6---6---6---|-------------------------6---6---|
1 + 2 + 3 + 4 + 1 + 2 + 3 + 4 +
1 + 2 + 3 + 4 + 1 + 2 + 3 + 4 +
e|---------------------------------|---------------------------------|
B|-------3---------------3---------|-3-------3---3-----------3---3-3-|
G|-----------3---3-----------3-----|---------3---2-----------2---0-0-|
D|-----0-------------------------0-|-2-----2---------------2---------|
A|-----------------0---0---1---1---|---------------------------------|
E|-3-------3---3-------------------|---------------------------------|
1 + 2 + 3 + 4 + 1 + 2 + 3 + 4 +
1 + 2 + 3 + 4 + 1 + 2 + 3 + 4 +
e|---------------------------------|---------------------------------|
B|-------3---------------3---------|-3-------3---3-----------3---3-3-|
G|-----------3---3-----------3-----|---------3---2-----------2---0-0-|
D|-----0-------------------------0-|-2-----2---------------2---------|
A|-----------------0---0---1---1---|---------------------------------|
E|-3-------3---3-------------------|---------------------------------|

*************VERSE*************
Note: watch for the 2 different notes in the
verse when compared to intro shown by ^
Please could you
stop
the
noise
im
e|---------------------------------|---------------------------------|
B|-------8---------------8---------|-------8---------------8---------|

G|-----------8---------------8-----|-----------8---8-----------8-----|
D|-------------------0-------------|-------------------0-------------|
A|-----x---------0---------------0-|-8---8---8---8---0---0-----------|
E|-8-------8---8---6---6---6---6---|-------------------------6---6---|
^
^
tryin
to
get
some
rest
e|---------------------------------|---------------------------------|
B|-------3---------------3---------|-3-------3---3-----------3---3-3-|
G|-----------3---3-----------3-----|---------3---2-----------2---0-0-|
D|-----0-------------------------0-|-2-----2---------------2---------|
A|-----------------0---0---1---1---|---------------------------------|
E|-3-------3---3-------------------|---------------------------------|
e|---------------------------------|---------------------------------|
B|-------3---------------3---------|-3-------3---3-----------3---3-3-|
G|-----------3---3-----------3-----|---------3---2-----------2---0-0-|
D|-----0-------------------------0-|-2-----2---------------2---------|
A|-----------------0---0---1---1---|---------------------------------|
E|-3-------3---3-------------------|---------------------------------|
From all
the
unborn
chicken
e|---------------------------------|---------------------------------|
B|-------8---------------8---------|-------8---------------8---------|
G|-----------8---------------8-----|-----------8---8-----------8-----|
D|-------------------0-------------|-------------------0-------------|
A|-----x---------0---------------0-|-8---8---8---8---0---0-----------|
E|-8-------8---8---6---6---6---6---|-------------------------6---6---|
^
^
voices
in
my
head
e|---------------------------------|---------------------------------|
B|-------3---------------3---------|-3-------3---3-----------3---3-3-|
G|-----------3---3-----------3-----|---------3---2-----------2---0-0-|
D|-----0-------------------------0-|-2-----2---------------2---------|
A|-----------------0---0---1---1---|---------------------------------|
E|-3-------3---3-------------------|---------------------------------|

*************CHORUS*************
What's that?
e|-------0---------------0---------|-------0---------------0---------|
B|-----------3---------3-----3-----|-----------3---------3-----3-----|
G|-----3---------3---3-----------3-|-----2---------2---2-----------2-|
D|---------------------------------|---------------------------------|
A|---------------------------------|---------------------------------|
E|-3---------------3---------------|-1---------------1---------------|
What's
e|-------0---------------0---------|-------0---------------0---------|
B|-----------3---------3-----3-----|-----------3---------3-----3-----|
G|-----1---------1---1-----------1-|-----3---------3---3-----------3-|
D|---------------------------------|---------------------------------|

A|---------------------------------|---------------------------------|
E|-0---------------0---------------|-3---------------3---------------|
that?
e|-------0---------------0---------|-------0---------------0---------|
B|-----------3---------3-----3-----|-----------3---------3-----3-----|
G|-----2---------2---2-----------2-|-----1---------1---1-----------1-|
D|---------------------------------|---------------------------------|
A|---------------------------------|---------------------------------|
E|-1---------------1---------------|-0---------------0---------------|
e|-------0---------------0---------|
B|-----------3---------3-----3-----|
G|-----1---------1---1-----------1-|
D|---------------------------------|
A|---------------------------------|
E|-0---------------0---------------|

*************VERSE 2*************
Play the same as verse 1:
When I am king, you will be first against the wall
With your opinion which is of no consequence at all
*************CHORUS*************
Play the same as previous chorus.

*************AMBITION SECTION*************
1 + 2 + 3 + 4 + 1 + 2 + 3 + 4 +
1 + 2 + 3 + 4 + 1 + 2 + 3 + 4 +
e|---------------------------------|---------------------------------|
B|---------------------------------|---------------------------------|
G|---------------------------------|---------------------------------|
D|---------------------------------|---------------------------------|
A|---------3---------------3---5---|---------3-----------5-3-0-3-0-5-|
E|-5---5-5---5-----4---4--4--------|-5---5-5---5-----4---------------|

1
+
2
+
3
+
4
+
1
+
2
+
3
+
e|-8-------8---8---8---8---8-------|-4-------4---4---6-------|
B|-8-------8---8---8---8---8-------|-4-------4---4---6-------|
G|-9-------9---9---10--9---9-------|-5-------5---5---7-------|
D|-10------10--10--10--10--10------|-6-------6---6---8-------| x3
A|-10------10------10------10------|-6-------6-------8-------|
E|-8-------8-------8-------8-------|-4-------4-------6-------|
1

+

2

+

3

+

4

+

1

+

2

+

3

+

4

+

x2

e|-8-------8---8---8---8---8-------|---------------------------------|
B|-8-------8---8---8---8---8-------|---------------------------------|
G|-9-------9---9---10--9---9-------|-9-------8-------5-------4-------|
D|-10------10--10--10--10--10------|-10------9-------7-------6-------|
A|-10------10------10------10------|-10------9-------7-------6-------|
E
E|-8-------8-------8-------8-------|-8-------7-------5-------4-------|

Ambition makes you look pretty ugly
e|---------------------------------|---------------------------------|
B|---------------------------------|---------------------------------|
G|-------------------------5---7---|---------------------------------|
D|-7---7-7-107-----6---6-6-5---7---|---------------------------------|
A|-7---7-7-107-----6---6-6-3---5---|---------3---------------3---5---|
E
E|-5---5-5-8-5-----4---4-4---------|-5---5-5---5-----4-4-4-4---------|
Kickin squealin gucci little piggy
e|---------------------------------|---------------------------------|
B|---------------------------------|---------------------------------|
G|-------------------------5---7---|---------------------------------|
D|-7---7-7-107-----6---6-6-5---7---|---------------------------------|
A|-7---7-7-107-----6---6-6-3---5---|---------3---------------3---5---|
E
E|-5---5-5-8-5-----4---4-4-3---5---|-5---5-5---5-----4-4-4-4---------|

yeah yeah ah ah (etc...)
e|-8-------8---8---8---8---8-------|-4-------4---4---6-------|
B|-8-------8---8---8---8---8-------|-4-------4---4---6-------|
G|-9-------9---9---10--9---9-------|-5-------5---5---7-------|
D|-10------10--10--10--10--10------|-6-------6---6---8-------| x3
A|-10------10------10------10------|-6-------6-------8-------|
E
E|-8-------8-------8-------8-------|-4-------4-------6-------|
e|-8-------8---8---8---8---8-------|---------------------------------|
B|-8-------8---8---8---8---8-------|---------------------------------|
G|-9-------9---9---10--9---9-------|-9-------8-------5-------4-------|
D|-10------10--10--10--10--10------|-10------9-------7-------6-------|
A|-10------10------10------10------|-10------9-------7-------6-------|
E
E|-8-------8-------8-------8-------|-8-------7-------5-------4-------|
You remember you dont remember
Why dont you remember my name? oh
e|---------------------------------|---------------------------------|
B|---------------------------------|---------------------------------|
G|-5-------------------------------|-------------------------5---7---|
D|-7-------------------------------|-7---7-7-107-----6---6-6-5---7---|
A|-7-----------------------3---5---|-7---7-7-107-----6---6-6-3---5---|
E
E|-5---5-5-8-5-----4---4--4--------|-5---5-5-8-5-----4---4-4-3---5---|
Offwithhisheadman Offwithhisheadman WhyDontYouRememberMyName?IguessHe
e|---------------------------------|---------------------------------|
B|-5---5---5---5---5-----------15--|---------------------------------|
G|-7---7---7---7---7///////////15--|-------------------------5---7---|
D|-7---7---7---7---7///////////17--|-7---7-7-107-----6---6-6-5---7---|

A|-5---5---5---5---5-----------15--|-7---7-7-107-----6---6-6-3---5---|
E|-5---5---5---5---5-----------15--|-5---5-5-8-5-----4---4-4-3---5---|
[slide up while strumming]
does...
e|-8-------8---8---8---8---8-------|-4-------4---4---6-------|
B|-8-------8---8---8---8---8-------|-4-------4---4---6-------|
G|-9-------9---9---10--9---9-------|-5-------5---5---7-------|
D|-10------10--10--10--10--10------|-6-------6---6---8-------| x3
A|-10------10------10------10------|-6-------6-------8-------|
E
E|-8-------8-------8-------8-------|-4-------4-------6-------|
e|-8-------8---8---8---8---8-------|---------------------------------|
B|-8-------8---8---8---8---8-------|---------------------------------|
G|-9-------9---9---10--9---9-------|-9-------8-------5-------4-------|
D|-10------10--10--10--10--10------|-10------9-------7-------6-------|
A|-10------10------10------10------|-10------9-------7-------6-------|
E
E|-8-------8-------8-------8-------|-8-------7-------5-------4-------|
1 + 2 + 3 + 4 + 1 + 2 + 3 + 4 +
1 + 2 + 3 + 4 + 1 + 2 + 3 + 4 +
e|---------------------------------|---------------------------------|
B|---------------------------------|---------------------------------|
G|---------------------------------|---------------------------------|
D|---------------------------------|---------------------------------|
A|---------3---------------3---5~~~~~~~~~~~~~#~~~~~5-----------------|
E|-5---5-5---5-----4---4--4--------|---------------------------------|
[bend up whole note to # and then back down to 5]
1 + 2 + 3 + 4 + 1 + 2 + 3 + 4 +
1 + 2 + 3 + 4 + 1 + 2 + 3 + 4 +
e|---------------------------------|---------------------------------|
B|---------------------------------|---------------------------------|
G|---------------------------------|---------------------------------|
D|---------------------------------|---------------------------------|
A|---------3---------------3---5~~~~~~~~~~~~~#~~~~~5-5~~~15~~5~~~12--|
E|-5---5-5---5-----4---4--4--------|---------------------------------|
[bend up whole note to # and then back down to 5]
[then in one slide hit 5, 15, 5 and 12]
e|-8-------8---8---8---8---8-------|-4-------4---4---6-------|
B|-8-------8---8---8---8---8-------|-4-------4---4---6-------|
G|-9-------9---9---10--9---9-------|-5-------5---5---7-------|
D|-10------10--10--10--10--10------|-6-------6---6---8-------| x3
A|-10------10------10------10------|-6-------6-------8-------|
E
E|-8-------8-------8-------8-------|-4-------4-------6-------|
e|-8-------8---8---8---8---8-------|---------------------------------|
B|-8-------8---8---8---8---8-------|---------------------------------|
G|-9-------9---9---10--9---9-------|-9-------8-------5-------4-------|
D|-10------10--10--10--10--10------|-10------9-------7-------6-------|
A|-10------10------10------10------|-10------9-------7-------6-------|
E
E|-8-------8-------8-------8-------|-8-------7-------5-------4-------|

************RAIN DOWN SECTION***************
*
Cm:
G:
G/A#:
A:
A

335543
320033
010033
002220

Dm:
A:
Dm:
D/C:
D

x00231
002220
x00231
030031

B:
F:
Gm:
F:
F

113331
133211
355333
133211

E:
E:
A:
A:
A

022100
022100
002220
002220

Repeat all x 4.
On fourth time replace last two A chords with:
O
E:
E:
E

022100
022100

Oh oh oh oh (etc)
O
Rain
Rain
From
From
F

down, rain down, come on
down on me
a great height
a great height, height

Rain
Rain
From
From
F

down, rain down, come on
down on me
a great height
a great height, height

That's it sir
You're leaving
The crackle of pigskin
The dust and the screaming
The yuppies networking
The panic, the vomit
The panic, the vomit
God loves his children
God loves his children
Y
Yeah!

***************FINAL SECTION*****************
*
e|---------------------------------|---------------------------------|
B|---------------------------------|---------------------------------|
G|-----------------------------7---|-------------------------5---7---|
D|-----------------------------7---|-7---7-7-107-----6---6-6-5---7---|
A|-------------------------3---5---|-7---7-7-107-----6---6-6-3---5---|
E
E|-5---5-5-8-5-----4---4--4----5---|-5---5-5-8-5-----4---4-4-3---5---|
e|---------------------------------|---------------------------------|
B|-5---5---5---5---5-----------15--|---------------------------------|
G|-7---7---7---7---7///////////15--|-------------------------5---7---|
D|-7---7---7---7---7///////////17--|-7---7-7-107-----6---6-6-5---7---|
A|-5---5---5---5---5-----------15--|-7---7-7-107-----6---6-6-3---5---|
E
E|-5---5---5---5---5-----------15--|-5---5-5-8-5-----4---4-4-3---5---|
e|-8-------8---8---8---8---8-------|-4-------4---4---6-------|
B|-8-------8---8---8---8---8-------|-4-------4---4---6-------|
G|-9-------9---9---10--9---9-------|-5-------5---5---7-------|
D|-10------10--10--10--10--10------|-6-------6---6---8-------| x3
A|-10------10------10------10------|-6-------6-------8-------|
E
E|-8-------8-------8-------8-------|-4-------4-------6-------|
e|-8-------8---8---8---8---8-------|---------------------------------|
B|-8-------8---8---8---8---8-------|---------------------------------|
G|-9-------9---9---10--9---9-------|-9-------8-------5-------4-------|
D|-10------10--10--10--10--10------|-10------9-------7-------6-------|
A|-10------10------10------10------|-10------9-------7-------6-------|
E
E|-8-------8-------8-------8-------|-8-------7-------5-------4-------|
e|---------------------------------|---------------------------------|
B|---------------------------------|---------------------------------|
G|-------------------------5---7---|---------------------------------|
D|-7---7-7-107-----6---6-6-5---7---|---------------------------------|
A|-7---7-7-107-----6---6-6-3---5---|---------3---------------3---5---|
E
E|-5---5-5-8-5-----4---4-4-3---5---|-5---5-5---5-----4-4-4-4---------|
e|---------------------------------|---------------------------------|
B|---------------------------------|---------------------------------|
G|-------------------------5---7---|---------------------------------|
D|-7---7-7-107-----6---6-6-5---7---|---------------------------------|
A|-7---7-7-107-----6---6-6-3---5---|---------3---------------3---5---|
E
E|-5---5-5-8-5-----4---4-4-3---5---|-5---5-5---5-----4-4-4-4---------|
e|-8-------8---8---8---8---8-------|-4-------4---4---6-------|
B|-8-------8---8---8---8---8-------|-4-------4---4---6-------|
G|-9-------9---9---10--9---9-------|-5-------5---5---7-------|
D|-10------10--10--10--10--10------|-6-------6---6---8-------| x3
A|-10------10------10------10------|-6-------6-------8-------|

E
E|-8-------8-------8-------8-------|-4-------4-------6-------|
e|-8-------8---8---8---8---8-------|---------------------------------|
B|-8-------8---8---8---8---8-------|---------------------------------|
G|-9-------9---9---10--9---9-------|-9-------8-------5-------4-------|
D|-10------10--10--10--10--10------|-10------9-------7-------6-------|
A|-10------10------10------10------|-10------9-------7-------6-------|
E|-8-------8-------8-------8-------|-8-------7-------5-------4-------|