You are on page 1of 3

1/11/2014

Mayck e Lyan - Comitiva Esperança | Cifra Club

Comitiva Esperança
Mayck e Lyan
Tom: A
Intro:

D|---0----------0-------|---0-4-2-0-0--0-0-0--------------|-------------------|
A|-----5----4-----4---4-|---0-5-4-2-0--0-2-0-2--0-2-0-----|-------------------|
F#|-------0---------0---|3X------------------1--0-1-0-1-0-|-0-1/3-3-3-0-1-1-0-|

(2x)

D|----------------------|-----------------------------2-0-|-0-2/4-4-4-0-2-2-0-|
A|-0--------------------|---------------------------------|-------------------|
Nossa viagem não é ligeira...
D|------------------------------------------|
A|------------------------------------------|
F#|0-0-1/3-3--0-1-1/3-3--0-1-1/3-3--0-5-0-3-|

(2x)

D|-0-0-2/4-4--0-2-2/4-4--0-2-2/4-4--0-5-0-4-|
A|------------------------------------------|
Onde a Comitiva Esperança, chega já começa a festança
D|---------------------|
A|---------------------|
F#|5-5-8-7-5---5-0-0---|

(2x)

D|-5-5-5-----7-5-0-0---|
A|---------------------|
Através do Rio Negro, Nhecolândia e Paiaguás...

D|-----------------------------------|
A|-----------------------------------|
F#|0-1-1/3-0-7-5-3-3--7-5-3-3-1-1-0--|

(2x)

D|-0-2-2/4-0-7-5-4-4--7-5-4-4-2-2-0--|
A|-----------------------------------|
(Intro)
Tá de passagem, abre a porteira, conforme for pra pernoitar
D|------------------------------------------|
A|------------------------------------------|
F#|0-0-1/3-3--0-1-1/3-3--0-1-1/3-3--0-5-0-3-|

(2x)

D|-0-0-2/4-4--0-2-2/4-4--0-2-2/4-4--0-5-0-4-|
A|------------------------------------------|
Moda ligeira, que é uma doideira, assanha o povo e faz dançar

http://www.cifraclub.com.br/mayck-lyan/comitiva-esperanca/imprimir.html#

1/3

D|-----------------------------------| A|-----------------------------------| F#|0-1-1/3-0-7-5-3-3--7-5-3-3-1-1-0--| (2x) D|-0-2-2/4-0-7-5-4-4--7-5-4-4-2-2-0--| A|-----------------------------------| - Ê.html# 2/3 . D|--------------------------| A|-4-5-7-5-3----------------| F#|3-5-7-5-4-5-3-3-3/5-7----| D|-----------5-4-4-4/6-6----| A|---------------5-5/7-7----| deslocamos um barco ligeiro http://www..1/11/2014 Mayck e Lyan . Nem vontade de regressar D|-2---7-----------------------7---6---5------2----------------------2--7-| A|-2---7-----------------------7---6---5------2----------------------2--7-| F#|2---7-------8-7---10-8-7----7---6---5------2-------0-1-0----------2--7-| D|-2---7---7-9-----9--------9--7---6---5------2-0-2^4-------2-0------2--7-| A|-2---7-----------------------7---6---5------2------------------2-0-2--7-| - F# B B A# A F# F# B É que as águas chegaram em Janeiro. tempo bom que tava por lá.cifraclub. Nhecolândia e Paiaguás..Comitiva Esperança | Cifra Club D|-5--5-5-5--5--5-5-5--5--5-5-5-------------------------| A|-5--5-5-5--5--5-5-5--5--5-5-5-------------------------| F#|5--5-5-5--5--5-5-5--5--5-5-5--0-3/6-6-5--------------| D|-5--5-5-5--5--5-5-5--5--5-5-5--0-4/7-7-5--------------| A|-5--5-5-5--5--5-5-5--5--5-5-5-------------------------| Oh moda lenta que faz sonhar D|---------------------------| A|---------------------------| F#|5/7-7-7-7-7--7-7--5-5/7---| D|-5/7-7-7-7-7--7-7--5-5/7---| A|---------------------------| Onde a Comitiva Esperança.com.br/mayck-lyan/comitiva-esperanca/imprimir. chega já começa a festança D|---------------------| A|---------------------| F#|5-5-8-7-5---5-0-0---| (2x) D|-5-5-5-----7-5-0-0---| A|---------------------| - Através do Rio Negro.

1/11/2014 Mayck e Lyan .cifraclub.com.html# D F# 3/3 .br/mayck-lyan/comitiva-esperanca/imprimir.Comitiva Esperança | Cifra Club D|-------------------5-----| A|---0-2-0-----------4-----| F#|1-0-1-0-1-0-------3-----| D|-2-------2-0-------2-----| A|--------------2-2--------| - D|-0/11-11-11---12--| A|-0/12-12-12---12--| F#|-------------12--| D|--------------12--| A|--------------12--| A A# B http://www.