You are on page 1of 5

Intro (adattato per chitarra)

E----12--11---------------------------------------------------|
B-----------12--14/15--14--12--14--10--10---------------------|
G-------------------------------------------------------------|
D-------------------------------------------------------------|
A-------------------------------0-----------------------------|
E-----0----------0--------------------------------------------|

Ripetere
due volte

E
A
B
C#m
Troppo cerebrale per capire che si pu star bene senza complicare il pane
G#m
B
E
Ci si spalma sopra un bel giretto di parole vuote ma doppiate
E-------------------------------------------------------------|
B----12--14/15--14--12--14--10--10----------------------------|
G-------------------------------------------------------------|
D-------------------------------------------------------------|
A------------------------0------------------------------------|
E---------0---------------------------------------------------|
E
A
B
Mangiati le bolle di sapone intorno al mondo e quando dormo taglia bene
C#m
G#m
B
A
l'aquilone togli la ragione e lasciami sognare lasciami sognare in pace
F#m
G#m
A
B
Liberi come eravamo ieri dai centimetri di libri sotto i piedi
G#m
A
B
per tirare la maniglia della porta e andare fuori
F#m
G#m
A
B
Come Mastroianni anni fa, come la voce guida la pubblicit
G#m
A
B
ci sono stati dei momenti intensi ma li ho persi gi..
E----12--11----------------------------------------------------|
B-----------12--14/15--14--12--14--10--10--9-10-9--------------|
G-------------------------------------------------9-9/8--8-8/7-|
D--------------------------------------------------------------|
A-------------------------------0------------------------------|
E-----0----------0------------------------------0--------------|
E
A
B
C#m
Troppo cerebrale per capire che si pu star bene senza calpestare il cuore
G#m
B
E
ci si passa sopra almeno due o tre volte i piedi come sulle aiuole
E-------------------------------------------------------------|
B----12--14/15--14--12--14--10--10----------------------------|
G-------------------------------------------------------------|
D-------------------------------------------------------------|
A------------------------0------------------------------------|
E---------0---------------------------------------------------|
E
A
B
Leviamo via il tappeto e poi mettiamoci dei pattini per scivolare meglio
C#m
G#m
B
A
sopra l'odio torre di controllo aiuto sto finendo l'aria dentro al serbatoio
E
C#m
A
B
Potrei ma non voglio fidarmi di te io non ti conosco e in fondo non c'
E
C#m
A
B
In quello che dici qualcosa che pensi sei solo la copia di mille riassunti
G#m
A
A7+
B
Leggera leggera si bagna la fiamma rimane la cera e non ci sei pi..
E----12--11----------------------------------------------------|
B-----------12--14/15--14--12--14--10--10--9-10-9--------------|

G-------------------------------------------------9-9/8--8-8/7-|
D--------------------------------------------------------------|
A-------------------------------0------------------------------|
E-----0----------0------------------------------0--------------|
E
A
B
Vuoti di memoria non c' posto per tenere insieme tutte le puntate
C#m
G#m
B
E
di una storia piccolissimo particolare che ho perduto senza cattiveria
E-------------------------------------------------------------|
B----12--14/15--14--12--14--10--10----------------------------|
G-------------------------------------------------------------|
D-------------------------------------------------------------|
A------------------------0------------------------------------|
E---------0---------------------------------------------------|
E
A
B
Mangiati le bolle di sapone intorno al mondo e quando dormo taglia bene
C#m
G#m
B
A
l'acquilone togli la ragione e lasciami sognare lasciami sognare in pace
F#m
G#m
A
B
Libero come ero stato ieri ho dei centimetri di cielo sotto ai piedi
G#m
A
B
adesso tiro la maniglia della porta e vado fuori
F#m
G#m
A
B
Come Mastroianni anni fa sono una nuvola fra poco piover
G#m
A
B
e non c'e' niente che mi sposta o che mi spostera'
E
C#m
A
B
Potrei ma non voglio fidarmi di te io non ti conosco e in fondo non c'
E
C#m
A
B
In quello che dici qualcosa che pensi sei solo la copia di mille riassunti
G#m
A
A7+
B
Leggera leggera si bagna la fiamma rimane la cera e non ci sei pi..
E----12--11----------------------------------------------------|
B-----------12--14/15--14--12--14--10--10--9-10-9--------------|
G-------------------------------------------------9-9/8--8-8/7-|
D--------------------------------------------------------------|
A-------------------------------0------------------------------|
E-----0----------0------------------------------0--------------|

Fa#m
Mi
Ciao, sono quello che hai incontrato alla festa,
Re
Do#m
ti ho chiamata solo per sentirti e basta.
Fa#m
Mi
si, lo so, passata appena un'ora, ma ascolta:
Re
Do#m
c' che la tua voce, chiss come, mi manca.
Sol#m

Mi

Se in quello che hai detto ci credevi davvero,


Fa#
Re#m
vorrei tanto che lo ripetessi di nuovo.
Sol#m
Mi
dicono che gli occhi fanno un uomo sincero,
Fa#
Re#m
allora zitta, non parlarmi nemmeno.
Do#m
Mi
Posso rivederti gi stasera?
Sol#m
Fa#
Ma tu non pensare male adesso:
Si
Mi
ancora il solito sesso!
Fa#m

Mi

Perch, sai, non capita poi tanto spesso


Re
Do#m
che il cuore mi rimbalzi cos forte addosso,
Fa#m
Mi
ed ho l'et che tutto sembra meno importante,
Re
Do#m
ma tu mi piaci troppo e il resto conta niente.
Sol#m
Mi
Dillo al tuo compagno che ci ha visti stanotte:
F#
Re#m
se vuole pu venire qui a riempirmi di botte!
Sol#m
Mi
Per sono sicuro che saranno carezze,
F#
Re#
se per avere te vicino almeno servisse.

Do#m

Mi

Posso rivederti gi stasera?


Sol#m
Fa#
Ma tu non pensare male adesso:
Si
Mi
ancora il solito sesso!
Do#m
Chiuder la curva dell'arcobaleno
La
per immaginarlo come la tua corona,

Mi
e con la riga dell'orizzonte in cielo
Si
ci far un bracciale di regina.
Sim

La

ma solo potessi un giorno


Re
vendere il mondo intero
F#m
in cambio del tuo amore vero!
Do#m
Sol#m
Sai, qualcosa tipo "cielo in una stanza"
La
Sol#m
quello che ho provato prima in tua
presenza.
Re#m
Si
dicono che gli angeli amano in silenzio,
Do#
Sibm
ed io nel tuo mi sono disperatamente perso.
Re#m
F#
Sento che respiri piano in questa cornetta.
Do#
Sibm
maledetta, mi separa dalla tua bocca!
Sol#m

Si

Posso rivederti gi stasera?


Re#m
Do#
Ma tu non pensare male adesso:
Fa#
Si
ancora il solito sesso!
Sol#m
Correr veloce contro le valanghe
Mi
per poi regalarti la fiamma del vulcano,
Si
respirer dove l'abisso discende
Fa#
e avrai tutte le piogge nella tua mano.
F#m

La

ma solo potessi un giorno


Re
vendere il mondo intero
Do#m
in cambio del tuo amore vero!
Strumentale:
FA#m DO#m Re7+

DO#m

FA#m DO#m Re7+

DO#m

SOL#m

LA

MI Re#m F# DO# Sibm

Sol#m
Si
Posso rivederti gi stasera
Re#m
Do#
Ma tu non pensare male adesso:
Faa#
Si
ancora il solito sesso!
Faa#m

Mi

Ora ti saluto, tardi, vado a letto.


Re
Do#m/Fa#m
Quello che dovevo dirti, io te l'ho detto.