You are on page 1of 3

Intro: DARTE UN BESO-PRINCE ROYCE

1|---3----3---3-----------------|
2|---4/5--5-------4p3----3------|
3|-------------------5-----5----|
4|------------------------------|
F
G
1|------------------------|------------------|
2|-----0h1p0--------------|--1p0-----1-------|
3|------------2-0-0h2-----|-------2-----2s4--|
4|-(2)----------------(3)-|------------------|
Am
1|------------------------|------5-----------|
2|-----0h1p0--------------|--4s5---4p3---3---|
3|------------2-0--0h2----|------------5---5-|
4|-(3)----------------(2)-|------------------|
F
G
1|----------------------|-----5--3--|
2|----0h1p0-------------|-----------|
3|----------2-0-0h2-----|-4s5-------|
4|-(2)--------------(3)-|-----------|
Am
1|----------------------|---------------|
2|----0h1p0-------------|--1s3-3-3s1~---|
3|----------2-0-0h2-----|--2s4-4-4s2~---|
4|-(3)--------------(2)-|---------------|

E|---------------------4h5p4----------------------------|
B|-----2-----4-----5--------5-----2-----4-----5---------|
G|------------------------------------------------------|
D|---2-----4-----6--------------2-----4-----6-----------|
A|-0-----2-----4--------------0-----2-----4-------4\----|
E|------------------------------------------------------|

A
B
C#m
I miss the taste of the sweet
life (riff)
A
B
C#m
I miss the conversation
A
B C#m
I'm searching for a song
tonight
A
B
C#m
I'm changing all of the
stations
A
B
C#m
I like to think that we had it
all
A
B
C#m
We drew a map to a better
place
A
B
C#m
But on that road I took a fall
A
B
C#m
Oh baby why did you run
away?
F#m
I was there for you
F#m
In your darkest times
G#m
I was there for you
G#m
In your darkest nights
A
B
But I wonder where were
you
C#m
When I was at my worst
A B
Down on my knees
C#m
And you said you had my
back
A
B
So I wonder where were you
C#m
A
B
When all the roads you took
came back to me
C#m
A
So I'm following the map
that leads to you
B
C#m
The map that leads to you
A
Ain't nothing I can do

B
C#m
The map that leads to you
C#m
A
Following, following,
following to you
B
C#m
The map that leads to you
A
Ain't nothing I can do
B
C#m
The map that leads to you
C#m
Following, following,
following
A
B
C#m
I hear your voice in my sleep
at night
A
B
C#m
Hard to resist temptation
A
B
C#m
Cause something strange
has come over me
A
B C#m
And now I can't get over you
A
B C#m
No I just can't get over you
F#m
I was there for you
F#m
In your darkest times
G#m
I was there for you
G#m
In your darkest nights
A
B
But I wonder where were
you
C#m
When I was at my worst
A B
Down on my knees
C#m
And you said you had my
back
A
B
So I wonder where were you
C#m
A
B
When all the roads you took
came back to me
C#m
A
So I'm following the map
that leads to you

B
C#m
The map that leads to you
A
Ain't nothing I can do
B
C#m
The map that leads to you
C#m
A
Following, following,
following to you
B
C#m
The map that leads to you
A
Ain't nothing I can do
B
C#m
The map that leads to you
C#m
Oh oh oh
C#m
Oh oh oh
C#m
Yeah yeah yeah
C#m
Oh oh
C#m
Oh oh
C#m
Oh I was there for you
C#m
Oh In you darkest times
C#m
Oh I was there for you
C#m
Oh In your darkest nights
C#m
Oh I was there for you
C#m
Oh In you darkest times
C#m
Oh I was there for you
C#m
Oh In your darkest nights
A
B
But I wonder where were
you
C#m
When I was at my worst
A B
Down on my knees
C#m
And you said you had my
back
A
B

So I wonder where were you


C#m
A
B
All the roads you took came
back to me
C#m
A
So I'm following the map
that leads to you
B
C#m
The map that leads to you
A
Ain't nothing I can do
B
C#m
The map that leads to you
C#m
A
Following, following,
following to you
B
C#m
The map that leads to you
A

Ain't nothing I can do


B
C#m
The map that leads to you
C#m
Following, following,
following

23

F#m

C#m

G#m
43

Related Interests