P. 1
Humko Sirf Tumse Pyaar Hai Guitar Notations

Humko Sirf Tumse Pyaar Hai Guitar Notations

|Views: 45|Likes:
Published by dhanesh mane
Humko Sirf Tumse Pyaar Hai Guitar Notations - easy
Humko Sirf Tumse Pyaar Hai Guitar Notations - easy

More info:

Published by: dhanesh mane on Feb 24, 2010
Copyright:Attribution Non-commercial

Availability:

Read on Scribd mobile: iPhone, iPad and Android.
download as DOC, PDF, TXT or read online from Scribd
See more
See less

02/24/2010

pdf

text

original

Humko sirf tumse pyaar hai guitar notations

E-------------------------------------------------
A-----------8---------8---------8-----------------
D---5-8-7-5---5-8-7-5---5-8-7-5---5---------------
G-------------------------------------------------
B-------------------------------------------------
E-------------------------------------------------
E-------------------------------------------------
A-----------8---------8---------8-----------------
D---5-8-7-5---5-8-7-5---5-8-7-5---5---------------
G-------------------------------------------------
B-------------------------------------------------
E-------------------------------------------------
Humko sirf tumse pyaar hai
E-------------------------------------------------
A------5-5----------------------------------------
D-5-5------5-7-8----------------------------------
G-----------------5-7-----------------------------
B-------------------------------------------------
E-------------------------------------------------
Humko sirf tumse pyaar hai
E-------------------------------------------------
A-------------------------------------------------
D-----7-8-----8-7-5-------------------------------
G-5-5-----5-5-------------------------------------
B-------------------------------------------------
E-------------------------------------------------
Humko sirf tumse pyaar hai
E-------------------------------------------------
A------5-5----------------------------------------
D-5-5------5-7-8----------------------------------
G-----------------5-7-----------------------------
B-------------------------------------------------
E-------------------------------------------------
Humko sirf tumse pyaar hai
E-------------------------------------------------
A-------------------------------------------------
D-----7-8-----8-7-5-------------------------------
G-5-5-----5-5-------------------------------------
B-------------------------------------------------
E-------------------------------------------------
E-------------------------------------------------
A-------------------------------------------------
D-------------------------------------------------
G-------------------------------------------------
B-------------------------------------------------
E-------------------------------------------------
Keh rahi hai dil ki bekhudi
E-------------------------------------------------
A-------5-5---------------------------------------
D-5-5-5-----5-7-8---------------------------------
G-----------------5-7-----------------------------
B-------------------------------------------------
E-------------------------------------------------
Bas tumhara intezaar hai
E-------------------------------------------------
A-------------------------------------------------
D-----7-8-----8-7-5-------------------------------
G-5-5-----5-5-------------------------------------
B-------------------------------------------------
E-------------------------------------------------
Humko sirf tumse pyaar hai
Humko sirf tumse pyaar hai
Dhoonte hain hum tumko dar badar
E-------------------------------------------------
A-------------------------------------------------
D-------------------8-----------------------------
G-7-8-7-5-7---7-8-7---5---------------------------
B-------------------------------------------------
E-------------------------------------------------
aane kab kahan milo!e humse humsafar
E-------------------------------------------------
A-------------------------------------------------
D-------8-7-8-------------------------------------
G-5-7-5-------5-7-8---8--5-7----------------------
B-------------------"-----------------------------
E-------------------------------------------------
Dhoonte hain hum tumko dar badar
E-------------------------------------------------
A-------------------------------------------------
D-------------------8-----------------------------
G-7-8-7-5-7---7-8-7---5---------------------------
B-------------------------------------------------
E-------------------------------------------------
aane kab kahan milo!e humse humsafar
E-------------------------------------------------
A-------------------------------------------------
D-------8-7-8-------------------------------------
G-5-7-5-------5-7-8---8--5-7----------------------
B-------------------"-----------------------------
E-------------------------------------------------
#umpe dil kya $aan nisaar hai
E-------------------------------------------------
A-------------------------------------------------
D---------8---8-7-5-------------------------------
G-7---5-----5-------------------------------------
B---8---7-----------------------------------------
E-------------------------------------------------

You're Reading a Free Preview

Download
scribd
/*********** DO NOT ALTER ANYTHING BELOW THIS LINE ! ************/ var s_code=s.t();if(s_code)document.write(s_code)//-->