You are on page 1of 2

83

Intro/Verse
e[-----4-----4--0-------------------------]
b[-----2-----2--2----------3----2-----0---]
g[-----4-----4--4----------0----0-----0---]
d[-------------------------4----4-----2---]
a[--0----0-0----0-------------------------]
e[-------------------------0----0-----0---]

Pre-Chorus
e[----------4-------------]
b[---5------2-------------]
g[---6------4---(repeat)--]
d[---4--------------------]
a[---5------0-------------]
e[------------------------]
Chorus
e[----------4-------------]
b[---5------2-------------]
g[---6------4---(repeat)--]
d[---4--------------------]
a[---5------0-------------]
e[------------------------]

Bridge
*
e[--------2---------------------0------------------4-----7--9--12---]

b[---5----2------------4---3----0-----------3--5---2----------------]
g[---4----3-h-4-p-3----4---4----1-h-2-p-1---4--6---4-----7--9--12---]
d[---6----2------------4---4----0-----------2--4--------------------]
a[---4----4------------2---2----2-----------3--5--------------------]
e[--------2---------------------0-----------------------------------]