You are on page 1of 2

Lost Frequencies - Reality

CAPO 4
Rythmique :
Le coup entre () est un coup percussif
B (B)H H(B)H
Version simplifie
B BH HBH
Partie mlodique :
-----------------e|----------------------------------------------------------------|
B|-5-5-5-6-5------------------------------------------------------|
G|------------4--4---4-4----4-5--5--5-4-2--2---2-2-4-2------------|
D|-----------------5-----5------------------------------5---------|
A|----------------------------------------------------------------|
E|----------------------------------------------------------------|
e|----------------------------------------------------------------|
B|-5-5-5-6-5------------------------------------------------------|
G|------------4--4---4-4----4-5--5--5-4-2--2---2-2-4-2h4p2--------|
D|-----------------5-----5----------------------------------5-----|
A|----------------------------------------------------------------|
E|----------------------------------------------------------------|
Intro: C Em Am F (2x)
Couplet 1 :
----------C
Em
Decisions as I go, to anywhere I flow.
Am
F
Sometimes I believe, a time where we should know.
C
Em
I can't fly high, I can't go long.
Am
F
Today I got a million, tomorrow, I don't know.
C
Em
Decisions as I go, to anywhere I flow.
Am
F
Sometimes I believe, a time where we should know.
C
Em
I can't fly high, I can't go long.
Am
F
Today I got a million, tomorrow, I don't know.
C Em Am F (2x)
Couplet 2 :
----------C
Em
Stop crying like you're home and think about the show.
Am
F
We're all playing the same game, I'm laying down along.
C
Em
We're unknown and wrong, special when I come.
Am
F
Hate will make you cautious, love will make you glow.
C
Em
Make me feel the warm, make me feel the cold.

Am
F
It's written in our story, it's written on the walls.
C
Em
This is our call, we rise and we fall.
Am
F
Dancin' in the moonlight, don't we have it all?
C

Em

Am

(3x)

Couplet 3 :
----------C
Em
Decisions as I go, to anywhere I flow.
Am
F
Sometimes I believe, a time where we should know.
C
Em
I can't fly high, I can't go long.
Am
F
Today I got a million, tomorrow, I don't know.
C
Em
Make me feel the warm, make me feel the cold.
Am
F
It's written in our story, it's written on the walls.
C
Em
This is our call, we rise and we fall.
Am
F
Dancin' in the moonlight, don't we have it all?
C

Em

Am

Tablature crite par Ipsaous :


Site : http://www.ipsacoustic.fr
Youtube : https://www.youtube.com/user/ipsaous
Cours de Gratte : http://www.coursdegratte.com