You are on page 1of 49

Mariposa traicionera

*Intro:
-1ra. Guitarra, Electroacstica (capo 5to. Traste):
1.
2.
3.
4.
5.
6.

-------------8-8-8----8--6---|-----------6-6-6----6--------|
--9--9--9--9-9-9-9--9-9--8-8-|-8-8-8-8-8-8-8-8-8--8-8--9-6-|
-10-10-10-10-------10------8-|-8-8-8-8-8-------8----8-10-6-|
-----------------------------|-----------------------------|
-----------------------------|-----------------------------|
-----------------------------|-----------------------------|

1.
2.
3.
4.
5.
6.

--------------------------------|------------|
-----9--9--9----9---8---6-------|------------|
-/10--10-10-10----8---6---6-8-5-|------------|
------------------------------6-|-/6-5-------|
--------------------------------|------8-6-8-|
--------------------------------|------------|

*Verso:
-2da. Guitarra, Electroacstca (capo 1er. Traste):
-3ra. Guitarra, Elctrica

1.
2.
3.
4.
5.
6.
1.
2.
3.
4.
5.
6.

1.
2.
3.
4.
5.
6.

Em
D
C
Eres como una mariposa, vuelas y posas vas de boca en boca,
---8---8----8---8--|-----6------6------6------6-----|----4---|
---9---9----9---9--|-----8------8------8------8-----|----6---|
--10--10---10--10--|-----8------8------8------8-----|----6---|
--10--10---10--10--|-----8------8------8------8-----|----6---|
-------------------|--------------------------------|--------|
-------------------|--------------------------------|--------|
G
fcil y ligera de quien te provoca.
-----4-----4-----4------|---4---4---4---|------------|
-----6-----6-----6------|---4---4---4---|------------|
-----6-----6-----6------|---5---5---5---|------------|
-----6-----6-----6------|---6---6---6---|-/6-5-------|
------------------------|---------------|------8-6-8-|
------------------------|---------------|------------|
Em
D (riff 1)
C
Yo soy ratn de tu ratonera, trampa que no mata pero no libera,
---8----8----8----8--|-----6------6------6------6-----|----4---|
---9----9----9----9--|-----8------8------8------8-----|----6---|
--10---10---10---10--|-----8------8------8------8-----|----6---|
--10---10---10---10--|-----8------8------8------8-----|----6---|
---------------------|--------------------------------|--------|
---------------------|--------------------------------|--------|
G
vivo muriendo prisionero.

1.
2.
3.
4.
5.
6.

---4---4---4---|---4---4---4---|
---6---6---6---|---4---4---4---|
---6---6---6---|---5---5---5---|
---6---6---6---|---6---6---6---|
---------------|---------------|
---------------|---------------|

*Puente:

1.
2.
3.
4.
5.
6.
1.
2.
3.
4.
5.
6.

C
D
G (riff2)
Em
Mariposa traicionera, todo se lo lleva el viento,
-4-4--6--6--|-----4------4------|-----8-----8----|
-6-6--8--8--|-----5------5------|-----9-----9----|
-6-6--8--8--|-----6------6------|----10----10----|
-6-6--8--8--|-----6------6------|----10----10----|
------------|-------------------|----------------|
------------|-------------------|----------------|
C
D
B7 (riff 3)
Mariposa no regreso.
-4-4--6--6--|--3--3--|
-6-6--8--8--|--5--5--|
-6-6--8--8--|--5--5--|
-6-6--8--8--|--5--5--|
------------|--------|
------------|--------|

*Coro:
E
Ay, mariposa de amor, mi mariposa de amor,
B
ya no regreso contigo, (riff 4)
F#m (riff 5)
B7
ay, mariposa de amor, mi mariposa de amor,
E
nunca jamas junto a ti, (riff 6)
E7
vuela amor, vuela dolor,
A
y no regreses a un lado, (riff 7)
E
ya vete de flor en flor, (riff 8)
B7
E
seduciendo a los pistilos, (riff 9)
A
E
y vuela cerca del sol,
B7
E
pa que sientas lo que es dolor.
*Solo:
-1ra. Guitarra, Electroacstica (capo 5to. Traste):

1.
2.
3.
4.
5.
6.

----------------|----------------------|---------------------------|
-10-10-10-11-13-|---9---9-8---9-8--8-6-|-----9--8--9-8---9-8---9-8-|
-10-10-10-12-14-|-5----10-8--10-8--8-6-|-6/8----8-10-8--10-8--10-8-|
----------------|----------------------|---------------------------|
----------------|----------------------|---------------------------|
----------------|----------------------|---------------------------|

1.
2.
3.
4.
5.
6.

---------------------------|--------------|------------|
---6--6-8-6--8--9-8-6------|--------------|------------|
-6----6-8-6--8-10-8-6--8-5-|--------------|------------|
----------------------10-6-|----------6-5-|-/6-5-------|
---------------------------|----5-6-8-----|------8-6-8-|
---------------------------|--8-----------|------------|

*Verso:
-2da. Guitarra, Electroacstca (capo 1er. Traste):
-3ra. Guitarra, Elctrica

1.
2.
3.
4.
5.
6.
1.
2.
3.
4.
5.
6.

1.
2.
3.
4.
5.
6.
1.
2.
3.
4.
5.
6.

Em
D
C
Ay mujer, cmo haces dao, pasan los minutos cual si fueran aos,
---8----8----8---8--|---6-------6-------6-------6------|----4---|
---9----9----9---9--|---8-------8-------8-------8------|----6---|
--10---10---10--10--|---8-------8-------8-------8------|----6---|
--10---10---10--10--|---8-------8-------8-------8------|----6---|
--------------------|----------------------------------|--------|
--------------------|----------------------------------|--------|
G (riff 10)
mira estos celos me estn matando.
-----4-----4-----4----|---4---4---4---|------------|
-----6-----6-----6----|---4---4---4---|------------|
-----6-----6-----6----|---5---5---5---|------------|
-----6-----6-----6----|---6---6---6---|-/6-5-------|
----------------------|---------------|------8-6-8-|
----------------------|---------------|------------|
Em
D
C
Ay mujer, que fcil eres, abres tus alitas muslos de colores,
---8---8---8---8--|---6------6-------6------6------|----4---|
---9---9---9---9--|---8------8-------8------8------|----6---|
--10--10--10--10--|---8------8-------8------8------|----6---|
--10--10--10--10--|---8------8-------8------8------|----6---|
------------------|--------------------------------|--------|
------------------|--------------------------------|--------|
G
donde se posan tus sabores.
---4---4---4----|---4---4---4---|
---6---6---6----|---4---4---4---|
---6---6---6----|---5---5---5---|
---6---6---6----|---6---6---6---|
----------------|---------------|
----------------|---------------|

*Puente:
(riff 11)

1.
2.
3.
4.
5.
6.
1.
2.
3.
4.
5.
6.

C
D
G
Em
(riff 12)
Mariposa traicionera, todo se lo lleva el viento,
-4-4--6--6--|-----4------4------|-----8-----8----|
-6-6--8--8--|-----5------5------|-----9-----9----|
-6-6--8--8--|-----6------6------|----10----10----|
-6-6--8--8--|-----6------6------|----10----10----|
------------|-------------------|----------------|
------------|-------------------|----------------|
C
D
B7 (riff 13)
Mariposa no regreso.
-4-4--6--6--|--3--3--|
-6-6--8--8--|--5--5--|
-6-6--8--8--|--5--5--|
-6-6--8--8--|--5--5--|
------------|--------|
------------|--------|

*Coro:
E
Ay, mariposa de amor, mi mariposa de amor,
B
ya no regreso contigo, (riff 4)
F#m (riff 5)
B7
ay, mariposa de amor, mi mariposa de amor,
E
nunca jamas junto a ti, (riff 5)
E7
vuela amor, vuela dolor,
A
que tengas suerte en tu vida, (riff 14)
E
ay, ay, ay, ay, ay dolor,
B7
E
yo te llor todo un ro, (riff 8)
A
E
ay, ay, ay, ay, ay amor,
B7
E
t te me vas a volar.
*Outro:
-1ra. Guitarra, Electroacstica (capo 5to. Traste):
1. ----------------|
2. -10-10-10-11-13-|
3. -10-10-10-12-14-|

4. ----------------|
5. ----------------|
6. ----------------|
1.
2.
3.
4.
5.
6.

---------------------8-8-8----8--6---|-----------6-6-6----6--------|
------9---9--9--9--9-9-9-9--9-9--8-8-|-8-8-8-8-8-8-8-8-8--8-8--9-6-|
---------10-10-10-10-------10------8-|-8-8-8-8-8-------8----8-10-6-|
-8/10--------------------------------|-----------------------------|
-------------------------------------|-----------------------------|
-------------------------------------|-----------------------------|

1.
2.
3.
4.
5.
6.

--------------------------------|---------6---|------------|
-----9--9--9----9---8---6-------|---6-8-9---9-|------------|
-/10--10-10-10----8---6---6-8-5-|-8-----------|------------|
------------------------------6-|-------------|-/6-5-------|
--------------------------------|-------------|------8-6-8-|
--------------------------------|-------------|------------|

*RIFFS:
-1ra. Guitarra, Electroacstica (capo 5to. Traste):

1.
2.
3.
4.
5.
6.

riff
riff
riff
1
2
3
-6-8-6-|----11-------11-----13-------13-|-------------------------|
-------|-13----13-13-----13----13-13----|-6-8--9--9/11--9------11-|
-------|--------------------------------|-6-8-10-10/12-10-10-12---|
-------|--------------------------------|-----------------11------|
-------|--------------------------------|-------------------------|
-------|--------------------------------|-------------------------|

1.
2.
3.
4.
5.
6.

riff
riff
riff
riff
4
5
6
7
------------------|----------|-8--9-8--9-8-|-777h8-12-12/13-|
------------------|-8/9-8h11-|-9-11-9-11-9-|----------------|
-9-12-12-10-10/12-|-0--------|-------------|----------------|
------------------|-0--------|-------------|----------------|
------------------|----------|-------------|----------------|
------------------|----------|-------------|----------------|

1.
2.
3.
4.
5.
6.

riff
riff
riff
8
9
10
----------------10-13-12-|-----------------|-------------------|
-10-10-10h11-10-11-15-13-|-----------------|-----13----11----9-|
-------------------------|---8-6---------5-|-/10----/8----/6---|
-------------------------|-8-----8\7-6-8---|-------------------|
-------------------------|-----------------|-------------------|
-------------------------|-----------------|-------------------|

riff
riff
riff
11
12
13
1. ---------------------|--------------|---------8--9-10---13-|

2.
3.
4.
5.
6.
1.
2.
3.
4.
5.
6.

-----13-----14----16-|-8-11-8-6-6-6-|-8--9-11-9-11-12-14---|
-/10----/12----/13---|-8-12-8-6-6-6-|-8-10-12--------------|
---------------------|--------------|----------------------|
---------------------|--------------|----------------------|
---------------------|--------------|----------------------|
riff
14
---------------7-11111111101010----------------1111---|
---------6-7-9-----------------1313131313111111----11-|
-----7-9----------------------------------------------|
-9-9--------------------------------------------------|
------------------------------------------------------|
------------------------------------------------------|

Ella y el

Nota: Aqui se
asi que
luego a
Cancin

especifica la guitarra del comienzo de la cancin.


comienza en Sol G, Luego pasa a D7 con el bajo en D#
Em y despues a C y se repite la secuencia para toda la
menos en el coro ya especificado.

Punteo:
G

G
Ella es de la Habana

D7/D#
El de Nueva York

E-|--------3-------||--------3---------------3----------------2--------|
B-|----0-------0---||----0-------0-------0-------0--------1-------1----|
G-|--0---0---0---0-||--0---0---0---0---0---0---0--------2---2---2---2--|
D-|----------------||------------------------------0-1-----------------|
A-|----------------||--------------------------------------------------|
E-|-3--------------||-3---------------3--------------------------------|

Em

C
Ella baila en

G
Tropicana

D7/D#
A l le gusta el

rock
E-|-------3-2----------------3---------------3----------------2-------|
B-|-----0-----0----------1-------1-------0-------0--------1-------1---|
G-|---0---------0------0---0---0---0---0---0---0--------2---2---2---2-|
D-|-2-------0--------------------------------------0-1----------------|
A-|----------------2-3------------------------------------------------|
E-|-----------------------------------3-------------------------------|

Ella vende besos en un burdel


E-|-------3-2----------------3--------------3---------2--------3-2-----|
B-|-----0-----0----------1-------1--------0---------1--------0-----0---|
G-|---0---------0------0---0---0---0----0---------2--------0---------0-|
D-|-2-------0----------------------------------1---------2-------0-----|
A-|----------------2-3-------------------------------------------------|
E-|-----------------------------------3--------------------------------|

mientras el se grada en UCLA


E-|-----------3-----------------3----------------3--------3---------3--3--2--|
B-|-------1-------1---------0-------0----------0------0-----------1----------|
G-|-----0---0---0---0-----0---0---0---0------0----------0-------0------------|
Repetir
D-|--------------------------------------------------------------------0-----|
A-|-2-3---------------------------------------------2--------3---------------|
E-|---------------------3------------------3---------------------------------|

****
Ella es medio marxista
El es republicano
Ella quiere ser artista
El odia a los cubanos
El cree en la estatua de la libertad
Y ella en su vieja Habana de la soledad.
El ha comido hamburguesas
Ella moros con cristianos
El champange con sus fresas
Ella un mojito cubano
Ella se fue de gira a Yucatn
Y el de vacaciones al mismo lugar.
Mulata hasta los pies
El rubio como el sol
Ella no habla ingls
Y el menos espaol
El fu a tomar un trago sin sospechar
Que iba a encontrar el amor en aquel lugar

*CORO*
G
d7/d#
Em
Lo que las ideologas dividen al hombre
C
G
D
El amor con sus hilos los une en su nombre.
G
d7/d#
Em
Ella mueve su cintura al ritmo de un cantar
C
G
Y l se va divorciando del To Sam
d7/d#
Em
El se refugia en su piel la quiere para l
C
G
Y ella se va olvidando de Fidel
C
D
G
Que saban Lenin y Lincoln del amor
C
D
G
Qu saben Fidel y Clinton del amor.

Ella se sienta en su mesa


El tiembla de la emocin
Ella se llama Teresa
Y l se llama John
Ella dice "Hola chico"
El contesta "Hello"
A ella no le para el pico
El dice "speak slow".
El se guard su bandera
Ella olvid los conflictos
El encontr la manera
De que el amor salga invicto
La tom de la mano y se la llev
El yankee de la cubana se enamor.
--------

*Coro*
--------

Ahora viven en Pars


Buscaron tierra neutral
Ella logr ser actriz
El es un tipo normal
Caminan de la mano
Calle Campos Elseos
Como quien se burla
del planeta y sus vicios.

El problema

Intro: Guitarra 1
e|-------------------------------0--------------G|-0h1--0h1-0---------0h1--0h1-0----------------B|------------2\4-2----------------2\4-4----x---D|----------------------------------------2---2-A|----------------------------------------------E|-----------------------------------------------

Intro: Guitarra 2
e|------------------------------0---------------G|----1--------0----------1-------1-------------B|------2--------0------2---2-------------------D|--2--------2--------2-------2-----------------A|-0-------2--------0---------------------------E|-----------------------------------------------

Verso:
e|--------5-----5-----------3-----3-------------G|----------5-----5-----------0-----0-----------B|-----5------5----------0------0---------------D|---7-----------------2------------------------A|-7-----------------2--------------------------E|----------------------------------------------e|-------1-----1--------------------------------G|---------1-----1------------------------------B|-----------2----------------------------------D|-----3----------------------------------------A|---3------------------------------------------E|-1--------------------------------------------e|----------------------------------------------G|-0h1--0h1-0-----------------------------------B|------------2\4-2-----------------------------D|----------------------------------------------A|----------------------------------------------E|----------------------------------------------e|--------5-----5-----------3-----3-------------G|----------5-----5-----------0-----0-----------B|-----5------5----------0------0---------------D|---7-----------------2------------------------A|-7-----------------2--------------------------E|----------------------------------------------e|-------1-----1--------------------------------G|---------1-----1------------------------------B|-----------2----------------------------------D|-----3----------------------------------------A|---3------------------------------------------E|-1--------------------------------------------e|-------------------0--------------------------G|-0h1--0h1-0-----------------------------------B|------------2---------------------------------D|---------------2------------------------------A|----------------------------------------------E|----------------------------------------------e|--------0-----0--------------3-----3----------G|----------1-----1--------------3-----3--------B|-----0------0--------------------0------------D|---2---------------------0--------------------A|-3---------------------2----------------------E|---------------------3------------------------e|-------1-----1-------------0------0--0--------G|---------1-----1-------------1----0--1--------B|-----------2------------0---------0--2--------D|-----3----------------2-----------2--2--------A|---3----------------3-------------2--0--------E|-1--------------------------------0--0--------e|--------0-----0-------------3-----3-----------G|----------1-----2-------------3-----3---------B|-----2------2-------------------0-------------D|---2--------------------0----------------------

A|-0--------------------2-----------------------E|--------------------3-------------------------e|-5\7/5--3--1-----------------------------------G|-----------1-----------------------------------B|-----------2-----------------------------------D|-----------3-----------------------------------A|-----------3-----------------------------------E|-----------1------------------------------------

e|----------------------------------------------G|-0h1--0h1-0-----------------------------------B|-2----2---0--2\4-2-----------------------------D|----------------------------------------------A|----------------------------------------------E|-----------------------------------------------

Am
Em
el problema no es que jueges ,
F
el problema es que es conmigo .
e|----------------------------------------------G|-0h1--0h1-0-----------------------------------B|-2----2---0--2\4-2-----------------------------D|----------------------------------------------A|----------------------------------------------E|-----------------------------------------------

Am
Em
si me gustaste por ser libre ,
F
quien soy yo para cambiarte .

e|-------------------0--------------------------G|-0h1--0h1-0--------1---------------------------B|------------2------0---------------------------D|---------------2---2---------------------------A|-------------------3----------------------------E|-------------------0----------------------------

C
G
si me quede queriendo solo ,
F
como hacer para obligarte .

e|-----------------0--0---------------------------G|-----------------0--1---------------------------B|--------0h2p0----0--2---------------------------D|-----------------2--2---------------------------A|-0h3p0-----------2--0---------------------------E|-----------------0--0----------------------------

Am
G
el problema no es quererte ,
F
es que tu no sientas lo mismo .

e|-------8----------------------------------------G|-8b(9)---8-8b(9)(8)p6---6-----------------------B|----------------------8---8b--------------------D|------------------------------------------------A|------------------------------------------------E|-------------------------------------------------

CORO

C
G
Y como deshacerme de ti si no te tengo ,
Em
Am
como alejarme de ti si estas tan lejos .
e|------------1----------------------------------G|------------1----------------------------------B|------------2----------------------------------D|------1--3--3----------------------------------A|-1--3-------3----------------------------------E|------------1-----------------------------------

F
G
como encontrarle una pestaa a lo que nunca tuvo ojos.
C
Como encontrarle plataformas a lo que siempre fue un
barranco.
C
G
Como encontrar en la cena los besos que no me diste.
C
G
Y como deshacerme de ti si no te tengo ,
Em
Am
como alejarme de ti si estas tan lejos .
e|------------1----------------------------------G|------------1----------------------------------B|------------2----------------------------------D|------1--3--3----------------------------------A|-1--3-------3----------------------------------E|------------1-----------------------------------

F
G
y es que el problema no es cambiarte ,
el problema es que no quiero .
Guitarra 1
e|-------------------------8\10/8---------------G|---8---8b(9)--------------------10--8\10/8----B|-9---9-------7b(8)(7)-------------------------D|----------------------------------------------A|----------------------------------------------E|-----------------------------------------------

Guitarra 2
e|----------------------------------------------G|-0h1--0h1-0-----------------------------------B|-2----2---0--2\4-2-----------------------------D|----------------------------------------------A|----------------------------------------------E|-----------------------------------------------

Verso:
Am
Em
el problema no es que duela ,
F
el problema es que me gusta .
e|-----------------------------------------------G|-0h1--0h1-0------------------------------------B|-2----2---0------2------------------------------

D|---------------2-------------------------------A|-------------0---------------------------------E|------------------------------------------------

Am
Em
el problema no es el dao ,
F
el problema son las huellas .
e|-------------------0--------------------------G|-0h1--0h1-0--------1---------------------------B|------------2------0---------------------------D|---------------2---2---------------------------A|-------------------3----------------------------E|-------------------0----------------------------

C
G
el problema no es lo que haces ,
F
C
el problema es que lo olvido .
Am
G
F
el problema no es que digas ,
el problema es lo que callas .
CORO
C
G
Y como deshacerme de ti si no te tengo ,
Em
Am
como alejarme de ti si estas tan lejos .
e|------------1----------------------------------G|------------1----------------------------------B|------------2----------------------------------D|------1--3--3----------------------------------A|-1--3-------3----------------------------------E|------------1-----------------------------------

F
G
el problema no fue hallarte ,
G
C
el problema es olvidarte .
C
el problema no es que mientas ,
C
el problema es que te creo .
C
el problema no es cambiarte ,
C
el problema es que no quiero .
C
el problema no es quererte
C
es que tu no sientas lo mismo .
C
G
el problema no es que jueges
el problema es q es conmigo.
Final:
e|----------------------------------------------G|-0h1--0h1-0------------------------------------

B|-2----2---0--2\4-2-----------------------------D|----------------------------------------------A|----------------------------------------------E|----------------------------------------------e|-----------------0-----------------------------G|-0h1--0h1-0------1-----------------------------B|-2----2-----0----2-----------------------------D|--------------2--2-----------------------------A|-----------------0-----------------------------E|-----------------0------------------------------

Coleccionista

Q pexin banda, aki les mando una rolita de stos weyes,


cheque las otras versiones y para empesar el tono es C#,
luego otro punto es q tiene un intro y ai se los pongo,
ad+ empieza con un arpegio si escuchan bien la rola,
bueno espero q les sirva cualkier duda ya saben,
pues es una rola muy chida y se la kiero dedicar a
"KARINA ZARCO JIMENEZ"
la kiero muxo y es una nia q vale mil
Y solo t solamente quiero que seas t
Yo pongo en tus manos mi destino
Porque vivo para estar siempre, siempre

contigo amor"

se la dedico completita, sta un poco larga pero


la neta vale la pena, un saludo ami amigo "alex tello"
intro:
C#
E-----------------------------------------A--4-----------------4--------------------D--3-----------------3--------------------G--1-----5-----1h3---1-----5-----1h3------B--2/4-----2/4-------2/4-----2/4----------e------1-----------------1-----------------

C#

A#m

E------------------------------------------------------A-4------------------------------1---------------------D--3------------------------------3--------------------G------------------------------------------------------B----2-1----------------------------2h1----------------e-------------------------------------------------------

tu... coleccionista de canciones


F#

G#

E-------2-----------------4----------------------------A--------4-----------------6---------------------------D------------4-----------------6-----------------------G----------3-----3-----------5---5--(5)----------------B--------------2-----2------------4--------------------e------------------2--------------------3h4-------------

dame

razones

para vivir

C#

A#m

F#

E-----------------------------------------------2------A-4------------------------1---------------------4-----D--3-------------------------3--------------------4----G------------------------------3-------------------3---B---3-1--------------------------2---------------------e-------------------------------------------------------

tu......... la duea de mis sueos, quedate en ellos


G#

A#m

E------------4-------1---------------------------------A--------------------------------1---------------------D--------------6-------3----------3--------------------G---------------5-------2----------3-------------------B----------------4-------1----------2------------------e-------------------------------------------------------

y hasme sentir

y asi

D#m

A#m

E-----------------------1------------------------------A--------------------------------------1---------------D--------------1----------3-------------3--------------G---------------3----------2-------------3-------------B-2--4----(2)----4------------------------2------------e-------1---------2-------------------------------------

en tu misterio poder
D#m

descubrir

E-----------------------1------------------------------A------------------------------------------------------D--------------1----------1----------------------------G---------------3----------2---------------------------B-2--4----(2)----4-------------------------------------e-------1---------2-------------------------------------

el sentimiento eterno................
estribillo
F#
C#
T con la luna en la cabeza
F#
El lugar en donde empieza
D#m
G#
El motivo y la ilusin de mi existir
C#
A#m
Tan solo t solamente quiero que seas t

F#
D#m
Mi locura, mi tranquilidad y mi delirio
F#
G#
Mi comps y mi camino
C#
A#m
Y solo t solamente quiero que seas t
F#
Yo pongo en tus manos mi destino
F#
F#
G#
C#
Porque vivo para estar siempre, siempre contigo amor.
intermedio:
E-----------------------------------------A--4--------------------------------------D--3-----------------4--------------------G--1-----5-----1h3----3---------1h3------B--2/4-----2/4---------2-1--2-4----------e------1----------------------------------E------------------A--4---------------D--3---------------G--1-----5-----1h3-B--2/4-----2/4-----e------1------------

verso
C#
A#m
F#
Tu coleccionista de canciones, mil emociones
G#
son para ti
C#
A#m
F#
Tu lo que so en mi vida entera, quedate en ella
G#
hazme sentir
D#m
A#m
E-----------------------1------------------------------A--------------------------------------1---------------D--------------1----------3-------------3--------------G---------------3----------2-------------3-------------B-2--4----(2)----4------------------------2------------e-------1---------2-------------------------------------

Y as ir transformando la magia de ti
D#m

E-----------------------1------------------------------A------------------------------------------------------D--------------1----------1----------------------------G---------------3----------2---------------------------B-2--4----(2)----4-------------------------------------e-------1---------2-------------------------------------

En un respiro del alma


estribillo

T con la luna en la cabeza


El lugar en donde empieza
El motivo y la ilusin de mi existir
coro
Tan solo t solamente quiero que seas t
Mi locura, mi tranquilidad y mi delirio
Mi comps y mi camino
Y solo t solamente quiero que seas t
Yo pongo en tus manos mi destino
F#
G#
Porque vivo para estar siempre contigo
A
B
Ya no queda mas espacio en mi interior
A
Has llenado con tu luz cada rincn
F#
G#
Es por ti que con el tiempo mi alma siente diferente
F# G#
Solo
coro
T solamente quiero que seas t
Mi locura, mi tranquilidad y mi delirio
Mi comps y mi camino
Solo t solamente quiero que seas t
Yo pongo en tus manos mi destino
Porque vivo para estar siempre contigo amor.
final:

C# A#m

F#

D#m

G#

jesus es verbo

ESTA ROLA SE LA DEDICO A TODOS LOS QUE HAN CONFIADO EN MI EN LA GUITARRA


Y A MIS AMIGOS QUE CONVIVEN CONMIGO, LOS QUIERO MUCHO.
ayer Jess afino mi guitarra y agudizo mis sentidos, me inspiro
papel y lpiz en mano apunto la cancin y me negu a escribir
por que hablar y escribir sobre Jess es redundar, seria mejor actuar
luego algo me dijo que la nica forma de no redundar es decir la verdad
decir que a Jess le gusta que actuemos no que hablemos
decir que Jess es mas que 5 letras formando un nombre
decir que Jess es verbo no sustantivo
e-10--5--7--5--3-10-9-7-9--10---------------------------10-7-9h10p9-7-9-5B------------------------------10-------10---10-7---7-7------------------G---------------------------------12-11-12-9------9-----------------------

D-12--7--9--7--5--7--------12--------------------------------------------A------------------------------------------------------------------------E------------------------------------------------------------------------e-------------7---5h7p5-3-5-2---------------2h3p2-0-2--B---7-5---5-5---7-------------0-0-2-3-2-3-5-----------3G-7-----7----------------------------------------------D------------------------------------------------------A------------------------------------------------------E------------------------------------------------------e-7-7-5-4-5-7-4-9-12-10-9h10p9---------2---------------2------B-9-9-7-5-7-9-5-9----12------------3-------3-------3-------3--G--------------------------------2---2---2---2---2---2---2---2D------------------------------0---------------0--------------A-------------------------------------------------------------E--------------------------------------------------------------

Jess es mas que una simple y llana teora


e---------2----------------0---------------2----------------------B-----3-------3--------2-------2-------3-------3-------3-------2--G---2---2---2---2----2---2---2---2---4---4---4---4---4---4---2---2D-0---------------------------------------------------------------A------------------0---------------2---------------2-------0------E------------------------------------------------------------------

que haces hermano leyendo la Biblia todo el da


e---------3---------------0---------------3---------------3------B-----3-------3-------2-------2-------3-------3-------3-------3--G---0---0---0---0---2---2---2---2---2---2---2---2---2---2---2---2D---------------------------------0---------------0--------------A-----------------0----------------------------------------------E-3---------------------------------------------------------------

lo que all esta escrito se resume en amor vamos ve y practcalo


e---------3---------------0-------------2--------0----------------B-----3-------3-------2-------2-------3--------2-----------3------G---0---0---0---0---2---2---2---2---2--------2---------4-------4--D---------------------------------0------------------4---4---4---4A-----------------0------------------------4-------2--------------E-3----------------------------------------------------------------

Jess hermanos mos es verbo y no sustantivo


e---------3---------------0---------------2---------------2------B-----3-------3-------2-------2-------3-------3-------3-------3--G---0---0---0---0---2---2---2---2---2---2---2---2---2---2---2---2D---------------------------------0---------------0--------------A-----------------0----------------------------------------------E-3---------------------------------------------------------------

Jess es mas que un templo de lujo con tendencia barroca


e---------2----------------0---------------2----------------------B-----3-------3--------2-------2-------3-------3-------3-------2--G---2---2---2---2----2---2---2---2---4---4---4---4---4---4---2---2D-0---------------------------------------------------------------A------------------0---------------2---------------2-------0------E------------------------------------------------------------------

el sabe que total a la larga esto no es mas que roca


e---------3---------------0---------------3---------------3-------

B-----3-------3-------2-------2-------3-------3-------3-------3--G---0---0---0---0---2---2---2---2---2---2---2---2---2---2---2---2D---------------------------------0---------------0--------------A-----------------0----------------------------------------------E-3---------------------------------------------------------------

la iglesia se lleva en el alma y en los actos no se te olvide


e---------3---------------0-------------2--------0----------------B-----3-------3-------2-------2-------3--------2---------3-------2G---0---0---0---0---2---2---2---2---2--------2---------4-------2--D---------------------------------0------------------4-------2----A-----------------0------------------------4-------2-------0------E-3----------------------------------------------------------------

que Jess hermanos mos es verbo y no sustantivo


e---------3---------------0---------------2---------------2------B-----3-------3-------2-------2-------3-------3-------3-------3--G---0---0---0---0---2---2---2---2---2---2---2---2---2---2---2---2D---------------------------------0---------------0--------------A-----------------0----------------------------------------------E-3---------------------------------------------------------------

Jess es mas que un grupo de seoras de muy negra conciencia


e---------2----------------0---------------2----------------------B-----3-------3--------2-------2-------3-------3-------3-------2--G---2---2---2---2----2---2---2---2---4---4---4---4---4---4---2---2D-0---------------------------------------------------------------A------------------0---------------2---------------2-------0------E------------------------------------------------------------------

que pretenden ganarse el cielo con club de beneficencia


e---------3---------------0---------------3---------------3------B-----3-------3-------2-------2-------3-------3-------3-------3--G---0---0---0---0---2---2---2---2---2---2---2---2---2---2---2---2D---------------------------------0---------------0--------------A-----------------0----------------------------------------------E-3---------------------------------------------------------------

si quieres tu ser miembro activa tendrs que presentar a la directiva


e---------3---------------0-------------2--------0----------------B-----3-------3-------2-------2-------3--------2------------------G---0---0---0---0---2---2---2---2---2--------2---------4-------2--D---------------------------------0------------------4---4---2---2A-----------------0------------------------4-------2-------0------E-3----------------------------------------------------------------

tu cuenta de ahorros en Suiza y verte unos oficiales


e---------3---------------0---------------2---------------2------B-----3-------3-------2-------2-------3-------3-------3-------3--G---0---0---0---0---2---2---2---2---2---2---2---2---2---2---2---2D---------------------------------0---------------0--------------A-----------------0----------------------------------------------E-3---------------------------------------------------------------

Jess es mas que persignarse, hincarse y hacer de esto alarde


e---------2----------------0---------------2----------------------B-----3-------3--------2-------2-------3-------3-------3-------2--G---2---2---2---2----2---2---2---2---4---4---4---4---4---4---2---2D-0---------------------------------------------------------------A------------------0---------------2---------------2-------0-------

E------------------------------------------------------------------

el sabe que quiz por dentro la conciencia les arde


e---------3---------------0---------------3---------------3------B-----3-------3-------2-------2-------3-------3-------3-------3--G---0---0---0---0---2---2---2---2---2---2---2---2---2---2---2---2D---------------------------------0---------------0--------------A-----------------0----------------------------------------------E-3---------------------------------------------------------------

Jess es mas que una flor en el altar salvadora de pecados


e---------3---------------0-------------2--------0----------------B-----3-------3-------2-------2-------3--------2---------3-------2G---0---0---0---0---2---2---2---2---2--------2---------4-------2--D---------------------------------0------------------4-------2----A-----------------0------------------------4-------2-------0------E-3----------------------------------------------------------------

Jess hermanos mos es verbo y no sustantivo


e---------3---------------0---------------2---------------2------B-----3-------3-------2-------2-------3-------3-------3-------3--G---0---0---0---0---2---2---2---2---2---2---2---2---2---2---2---2D---------------------------------0---------------0--------------A-----------------0----------------------------------------------E-3--------------------------------------------------------------e---------1---------------1------B-----3-------3-------3-------3--G---3---3---3---3---3---3---3---3D--------------------------------A-1---------------1--------------E---------------------------------

Jess convertir en hechos todos sus sermones


e---------3---------------1---------------3----------------------B-----4-------4-------3-------3-------4-------4-------4-------3--G---3---3---3---3---3---3---3---3---5---5---5---5---5---5---3---3D-1--------------------------------------------------------------A-----------------1---------------3---------------3-------1------E-----------------------------------------------------------------

que si tomas caf es pecado dicen los mormones


e---------4---------------1---------------3---------------3------B-----4-------4-------3-------3-------4-------4-------4-------4--G-------------------3---3---3---3---3---3---3---3---3---3---3---3D---6---6---6---6-----------------1---------------1--------------A-----------------1----------------------------------------------E-4---------------------------------------------------------------

tienen tan poco que hacer que andan inventado cada cosa
e---------4------------------------------------------------------B-----4-------4-----------6-------------------------------4------G---------------------7-------7-------8-------7-------5-------5--D---6---6---6---6---8---8---8---8---8---8---8---8---5---5---5---5A---------------------------------6-------5-------3--------------E-4---------------6-----------------------------------------------

Jess hermanos mos es verbo no sustantivo


e---------4---------------1---------------3---------------3------B-----4-------4-------3-------3-------4-------4-------4-------4---

G-------------------3---3---3---3---3---3---3---3---3---3---3---3D---6---6---6---6-----------------1---------------1--------------A-----------------1----------------------------------------------E-4---------------------------------------------------------------

Jess no entiende por que en el culto le aplauden


e---------3---------------1---------------3----------------------B-----4-------4-------3-------3-------4-------4-------4-------3--G---3---3---3---3---3---3---3---3---5---5---5---5---5---5---3---3D-1--------------------------------------------------------------A-----------------1---------------3---------------3-------1------E-----------------------------------------------------------------

hablan de honestidad sabiendo que el diezmo es un fraude


e---------4---------------1---------------3---------------3------B-----4-------4-------3-------3-------4-------4-------4-------4--G-------------------3---3---3---3---3---3---3---3---3---3---3---3D---6---6---6---6-----------------1---------------1--------------A-----------------1----------------------------------------------E-4---------------------------------------------------------------

a Jess le da asco el pastor que se hace rico non la fe


e---------4---------------------------------------------------------B-----4-------4-----------6-----------------------------------------G---------------------7-------7-------8-------7---------------------D---6---6---6---6---8---8---8---8---8---8---8---8------10--------8--A---------------------------------6-------5---------10----10---8---8E-4---------------6-------------------------------8----------6-------

Jess hermanos mos es verbo no sustantivo


e---------4---------------1-------------3B-----4-------4-------3-------3-------4-4G-------------------3---3---3---3---3---3D---6---6---6---6-----------------1-----1A-----------------1---------------------1E-4-------------------------------------1e----------------------13-15-18-18-------------18-16-15-16B----------11-11----11----------------------11------------G----10-12----------------------------10-12---------------D-13-------------13----------------13---------------------A---------------------------------------------------------E---------------------------------------------------------e----------------16-15-13-15-------------12-13-15-16B----------11-13----------------------11------------G----10-12----------------------10-12---------------D-13-------------------------13---------------------A---------------------------------------------------E---------------------------------------------------e-18-18-15-15-12-12-9-9-6-6-3-3-0-0-------------5-2---0-----0B-----------------------------------2-3-------------3---2-3--G-18-18-15-15-12-12-9-9-6-6-3-3-0-0---------3-4--------------D---------------------------------------4-6------------------A------------------------------------------------------------E-------------------------------------------------------------

de mi barrio la mas religiosa era Doa Carlota


e---------2----------------0---------------2-----------------------

B-----3-------3--------2-------2-------3-------3-------3-------2--G---2---2---2---2----2---2---2---2---4---4---4---4---4---4---2---2D-0---------------------------------------------------------------A------------------0---------------2---------------2-------0------E------------------------------------------------------------------

hablaba de amor al prjimo y me poncho cien pelotas


e---------3---------------0---------------3---------------3------B-----3-------3-------2-------2-------3-------3-------3-------3--G---0---0---0---0---2---2---2---2---2---2---2---2---2---2---2---2D---------------------------------0---------------0--------------A-----------------0----------------------------------------------E-3---------------------------------------------------------------

desde chico fui aprendiendo que la religin no es mas que un mtodo


e---------3---------------0--------------------------------------B-----3-------3-------2-------2-------3--------2-----------3------G---0---0---0---0---2---2---2---2---2---2----2---2-----4-------4--D---------------------------------0------------------4---4---4---4A-----------------0------------------------4-------2--------------E-3----------------------------------------------------------------

con el titulo prohibido pensar que ya todo esta escrito


e---------3---------------0-------------2B-----3-------3-------2-------2-------3-3G---0---0---0---0---2---2---2---2---2---2D---------------------------------0-----0A-----------------0---------------------0E-3-------------------------------------0-

no puse las notas del piano por que sobrepasan el 20 traste de la


guitarra
pero este es el acompaamiento
D A Bm F#m G D Em A
me bautizaron cuando tenia dos meses y a mi no me avisaron
e---------2----------------0---------------2----------------------B-----3-------3--------2-------2-------3-------3-------3-------2--G---2---2---2---2----2---2---2---2---4---4---4---4---4---4---2---2D-0---------------------------------------------------------------A------------------0---------------2---------------2-------0------E------------------------------------------------------------------

hubo fiesta, piatas y a mi ni me preguntaron


e---------3---------------0---------------3---------------3------B-----3-------3-------2-------2-------3-------3-------3-------3--G---0---0---0---0---2---2---2---2---2---2---2---2---2---2---2---2D---------------------------------0---------------0--------------A-----------------0----------------------------------------------E-3---------------------------------------------------------------

bautzame tu Jess por favor as entre amigos


e---------3---------------0-------------2--------0----------------B-----3-------3-------2-------2-------3--------2-----------3------G---0---0---0---0---2---2---2---2---2--------2---------4-------4--D---------------------------------0------------------4---4---4---4A-----------------0------------------------4-------2--------------E-3----------------------------------------------------------------

se que odias el protocolo hermano mo


e---------3---------------0---------------2---------------2-------

B-----3-------3-------2-------2-------3-------3-------3-------3--G---0---0---0---0---2---2---2---2---2---2---2---2---2---2---2---2D---------------------------------0---------------0--------------A-----------------0----------------------------------------------E-3--------------------------------------------------------------e---------1---------------1------B-----3-------3-------3-------3--G---3---3---3---3---3---3---3---3D--------------------------------A-1---------------1--------------E---------------------------------

seores no dividan la fe las fronteras son para los pases


e---------3---------------1---------------3----------------------B-----4-------4-------3-------3-------4-------4-------4-------3--G---3---3---3---3---3---3---3---3---5---5---5---5---5---5---3---3D-1--------------------------------------------------------------A-----------------1---------------3---------------3-------1------E-----------------------------------------------------------------

en este mundo hay mas religiones que nios felices


e---------4---------------1---------------3---------------3------B-----4-------4-------3-------3-------4-------4-------4-------4--G-------------------3---3---3---3---3---3---3---3---3---3---3---3D---6---6---6---6-----------------1---------------1--------------A-----------------1----------------------------------------------E-4---------------------------------------------------------------

Jess pens me har invisible para que todos mis hermanos


e---------4------------------------------------------------------B-----4-------4-----------6-------------------------------4------G---------------------7-------7-------8-------7-------5-------5--D---6---6---6---6---8---8---8---8---8---8---8---8---5---5---5---5A---------------------------------6-------5-------3--------------E-4---------------6-----------------------------------------------

dejen de estar hablando tanto de mi y se tiendan la mano


e---------4---------------1---------------3---------------3------B-----4-------4-------3-------3-------4-------4-------4-------4--G-------------------3---3---3---3---3---3---3---3---3---3---3---3D---6---6---6---6-----------------1---------------1--------------A-----------------1----------------------------------------------E-4---------------------------------------------------------------

Jess eres el mejor testigo del amor que te profeso


e---------3---------------1---------------3----------------------B-----4-------4-------3-------3-------4-------4-------4-------3--G---3---3---3---3---3---3---3---3---5---5---5---5---5---5---3---3D-1--------------------------------------------------------------A-----------------1---------------3---------------3-------1------E-----------------------------------------------------------------

tengo la conciencia tranquila por eso no me confieso


e---------4---------------1---------------3---------------3------B-----4-------4-------3-------3-------4-------4-------4-------4--G-------------------3---3---3---3---3---3---3---3---3---3---3---3D---6---6---6---6-----------------1---------------1--------------A-----------------1----------------------------------------------E-4---------------------------------------------------------------

rezando 3 padres nuestros el asesino no revive a su muerto


e---------4------------------------------------------------------B-----4-------4-----------6-------------------------------4------G---------------------7-------7-------8-------7-------5-------5--D---6---6---6---6---8---8---8---8---8---8---8---8---5---5---5---5A---------------------------------6-------5-------3--------------E-4---------------6-----------------------------------------------

Jess hermanos mos es verbo no sustantivo


e---------4---------------1-------------3B-----4-------4-------3-------3-------4-4G-------------------3---3---3---3---3---3D---6---6---6---6-----------------1-----1A-----------------1---------------------1E-4-------------------------------------1e----------------------13-15-18-18-------------18-16-15-16B----------11-11----11----------------------11------------G----10-12----------------------------10-12---------------D-13-------------13----------------13---------------------A---------------------------------------------------------E---------------------------------------------------------e----------------16-15-13-15-------------12-13-15-16B----------11-13----------------------11------------G----10-12----------------------10-12---------------D-13-------------------------13---------------------A---------------------------------------------------E---------------------------------------------------e-18-18-15-15-12-12-9-9-6-6-3-3-0-0-------------5-2---0-----0B-----------------------------------2-3-------------3---2-3--G-18-18-15-15-12-12-9-9-6-6-3-3-0-0---------3-4--------------D---------------------------------------4-6------------------A------------------------------------------------------------E-------------------------------------------------------------

Jess no bajes a la tierra, qudate ah arriba


e---------2----------------0---------------2----------------------B-----3-------3--------2-------2-------3-------3-------3-------2--G---2---2---2---2----2---2---2---2---4---4---4---4---4---4---2---2D-0---------------------------------------------------------------A------------------0---------------2---------------2-------0------E------------------------------------------------------------------

todos los que han pensado como tu estn boca arriba


e---------3---------------0---------------3---------------3------B-----3-------3-------2-------2-------3-------3-------3-------3--G---0---0---0---0---2---2---2---2---2---2---2---2---2---2---2---2D---------------------------------0---------------0--------------A-----------------0----------------------------------------------E-3---------------------------------------------------------------

olvidados en algn cementerio de equipaje sus ideales


e---------3---------------0-------------2--------0-2B-----3-------3-------2-------2-------3--------2---3G---0---0---0---0---2---2---2---2---2--------2-----4D---------------------------------0----------------4A-----------------0------------------------4-------2-

E-3------------------------------------------------2-

G
A
murieron con la sonrisa en los labios por que fueron
verbo y no sustantivo.
e-10-3-2B------3G------2D--0---0A------0E------0sUgErEnCiAs A mI CoRrEo

Guia:

Esto es una pequea guia, para los que comienzan con este instrumento musical

La tablatura, que abreviado se denomina TAB, es un mtodo para escribir msica para ser
interpretada por instrumentos de cuerdas como la guitarra y el bajo.
Se utilizan letras (ASCII) y nmeros , hacindolo ideal para lugares como internet en donde
cualquier persona puede tener acceso a un archivo de texto copiarlo y leerlo.
La tablatura es una representacin del brazo de la guitarra por medio de seis lineas dispuestas de
manera horizontal representando las cuerdas de la guitarra (si se trata de un bajo, seran cuatro
lineas y asi con cualquier instrumento). A la izquierda, al principio de cada linea horizontal se
colocan letras en cifrado americano que dicen las notas de cada cuerda y se deduce en que
afinacion debemos tocar la tablatura, si no hay ninguna indicacin se toma la afinacin estandar. La
cuerda mas aguda estara representada arriba de todo, es decir es la primera linea que se dibuja,
en ocasiones la primera cuerda se dibuja con una "e" minscula al lado.

e|-------------------------------------------------------------|
B|-------------------------------------------------------------|
G|-------------------------------------------------------------|
D|-------------------------------------------------------------|
A|-------------------------------------------------------------|
E|-------------------------------------------------------------|

Basicamente, la tablatura indica que nota se debe tocar en el lugar exacto (esta es la gran
diferencia que existe con respecto a la partitura en donde uno debe deducir que digitacin usar).
Los numeros representaran el traste en el que esta ubicada la nota, en el caso de que diga 0 se
tomar como una cuerda al aire.
Es importante saber que en un TAB no se indican la duracin de las notas, es mejor conocer la
cancin para darte una idea de como tocarla. En ocasiones la duracin puede deducirse segun la
distancia que hay entre cada numero, por ejemplo si estan muy juntos el tema sera rpido.
Tampoco te indicar que dedos debes utilizar para presionar las cuerdas.
Una tablatura puede verse mas o menos asi:

E----5----7--------------------------3-----7--------------------------B----5----8---------------0-1------1-1-----5--------8--7-5-7--------2-3
G----5----7-------------2-----2----------5------------------------4---D----7----9----7-9----2-----------------------------------------4-----A----7----10--------0-----------0-----------------------------2-------E----5----7-----------------------------------8-7----------------------

Al principio puede resultar bastante complicado pero la tablatura requiere mucha menos dedicacin
que la partitura. Observa que cuando hay varios numeros uno encima de otro (como en el ejemplo)
indicara que deben tocarse al mismo tiempo, representando un acorde. El TAB debe leerse al igual
que cualquier texto, de izquierda a derecha.
La tablatura suele estar enriquezida por los distintos efectos que se pueden hacer con la guitarra:
BEND UP/DOWN
(Tensin Ascendente
/Descendente)

e|-------------------|
B|-------------------|
G|-----5b7b5---------|
D|-------------------|
A|-------------------|
E|-------------------|
Pulsa la nota de salida (aqui en el 5to traste) y tira de ella hasta conseguir la afinacin de la nota
que esta despues de la "b", para luego soltarla a la afincion inicial.
REPICK
(Pulsacion repetida)

e|-------------------|
B|-------------------|
G|-----5b7r7---------|
D|-------------------|
A|-------------------|
E|-------------------|
Has bend up a la afinacin mostrada luego de la "b", entonces vuelve a pulsar la nota que esta
posterior a la "r", mientras aguantas la tension de la cuerda a la afincacin indicada
PRE-BEND
(Pulsacin en tensin)

e|-------------------|
B|-------------------|
G|-------b7b5--------|
D|-------------------|
A|-------------------|
E|-------------------|

Tensiona la cuerda previamente hasta conseguir la afinacin despues de la "b" (en este caso 7) y
luego pulsa la nota para luego aflojar

HAMMER-ON
(Ligado Ascendente)

e|-------------------|
B|-------------------|
G|-------5h7---------|
D|-------------------|
A|-------------------|
E|-------------------|
Pulsa en el 5to traste, entonces has sonar otra nota en el 7mo traste con la mano en el diapasn
sin pulsar nuevamente.
PULL-OFF
(Ligado Descendente)

e|-------------------|
B|-------------------|
G|-------7p5---------|
D|-------------------|
A|-------------------|
E|-------------------|
presiona la nota en el 7mo traste, y ademas el 5to con otro dedo (sobre la misma cuerda),
entoncestira del dedo hacia arriba para que suene la nota inferior
SLIDE
(Glissando)

e|-------------------|
B|-------------------|
G|-------7s5---------|
D|-------------------|
A|-------------------|
E|-------------------|

Pulsa la nota del septimo traste luego desliza el dedo abajo hacia el quinto sin pulsar nuevamente,
esto puede hacerse de manera invertida tambien, en ocasiones los slides se representan con / o \
segun sean ascendente (el primero) o descendente (el segundo)
FRETBOARD MUTES
(Apagados de diapasn)
e|-----------------------|
B|--6--x--x--x--6--x--x--|
G|--7--x--x--x--7--x--x--|
D|--6--x--x--x--6--x--x--|
A|--7--x--x--x--7--x--x--|
E|-----------------------|
Las notas marcadas con x debieran ser apagadas usando los dedos de la mano que pulsa en el
diapasn.
PALM MUTES
(Apagados)

e|-----------------------|
B|--6-----------6--------|
G|--7-----------7--------|
D|--6-----------6--------|
A|--7-----------7--------|
E|-----0--0--0-----0--0--|
PM PM PM PM PM
Apagados hechos reposando la mano que pulsa sobre las cuerdas cerca del puente, es decir
utilizando la palma de la mano derecha (izquierda si eres zurdo)
VIBRATO
(Vibracin)
e|-------------------|
B|-------------------|
G|----12~------------|
D|-----------14~-----|
A|-------------------|

E|-------------------|
Vibra la nota con la mano que esta sobre el diapasn, normalmente con un leve movimiento
ascendente y descendente. Tambien se puede hacer con la palanca y de manera exagerada.
Puede representarse tambien con una "v" OTROS SIMBOLOS
() = Nota que sigue sonando, pero sin volver a tocarla.
N.C. = Sin acorde(s).
t (tapping) = Usar dedo(s) de la mano derecha para pulsar cuerda.
H = Harmnico. Se toca la cuerda rozndola.
AH = Harmnico artificial. Se toca la nota y con la yema del dedo se corta el sonido hacindolo
ms agudo.

Guia 2:

EN CASO DE QUE SE CORRAN LAS TABLATURAS O NO SE ENTIENDA BIEN ENTREN EN


LA FUENTE
La parte que ms nos interesa aprender de la guitarra es el mstil. En el
mstil se encuentran los trastes, que son las subdivisiones que tiene el
mstil. La guitarra tiene 6 cuerdas de distinto grosor, la ms fina y que
est ms abajo, es la denominada primera cuerda, la siguiente es
la segunda, y as hasta llegar a la sexta cuerda que es la ms gruesa.
......---\
Mi 1ra. ||---------|----------|----------|----------|---------|-- Cuerda
mas fina (Primera)
Si 2da. ||---------|----------|----------|----------|---------|-Sol 3ra.||---------|----------|----------|----------|---------|-Re 4ta. ||---------|----------|----------|----------|---------|-La 5ta. ||---------|----------|----------|----------|---------|-Mi 6ta. ||--------@|----------|----------|----------|---------|-- Cuerda
mas gruesa (Sexta)
......___/1 Traste . 2 Traste . 3 Traste . 4 Traste . 5 Traste
MASTIL DE LA GUITARRA

Nota: @ es onde se debe poner el dedo. No en el medio, ni arriba de la


barra de metal, si no justo al lado.
-----------------------------------------------------------------

Lo primero que tienes que aprender para saber tocar tablaturas de


guitarra o bajo, es que las tablaturas son como si fueran partituras que
estan hechas para la guitarra, aunque no con toda la informacin que te
daria una partitura, como por ejemplo los tiempos en que tienes que tocar
cada nota en el punteo de las canciones. Por lo cual tienes que haber
escuchado antes las canciones de la cuales quieres tocar usando las
tablaturas. La tablatura esta compuesta de seis lneas horizontales que
representan las seis cuerdas de la guitarra, la lnea de arriba es la
primera cuerda y la ultima lnea es la sexta cuerda de la guitarra.

e------------------------------primera cuerda
B------------------------------segunda cuerda
G------------------------------tercera cuerda
D------------------------------cuarta cuerda
A------------------------------quinta cuerda
E------------------------------sexta cuerda

Dentro de esta lneas van a estar representados unos nmeros que


representan el traste que debes de pulsar en el mastil de la guitarra.

Como ejemplo esta tablatura:


e----1------------------------B-----------------------------G-------3---------------------D----------5------------------A-----------------------------E-----------------------------Esto quiere decir que debes comenzar el punteo de guitarra pisando la
cuerda primera(e) en el traste 1, despus sigue la cuerda tercera(G) en
el traste 3, despus sigue la cuerda cuarta(D) en el traste 5; es facil,
solo tienes que seguir los nmeros y ya esta hecho el punteo. Hasta aqui
facil.
NOTA: Un 0 en la tablatura indica que hay que tocar la cuerda al aire
(sin pulsarla)

Cuando encuentres en las tablaturas unos nmeros encima de otros


(acordes), los tienes que tocar al mismo tiempo y cada uno en su traste.
Se trataria de un acorde y se definiria como: dos o ms notas sonando al
mismo tiempo.
Ejemplo de acorde:
e--2---------------------------primera cuerda
B--3---------------------------segunda cuerda
G----4-------------------------tercera cuerda
D------------------------------cuarta cuerda
A------------------------------quinta cuerda
E------------------------------sexta cuerda
Aqui hay dos notas una encima de otra, sin dejar un espacio. Esto lo
tienes que tocar al mismo tiempo, o sea la primera cuerda de la guitarra
pisada en el traste 2 y la segunda cuerda pisada en el traste 3,
presionas las dos cuerdas juntas en el traste que te indica y las tocas
al mismo tiempo y de ah pasa a la otra nota que es la tercera cuerda en
el traste 4.

Acordes de guitarra
Dom = cm
e----3--------------------------primera cuerda
B----4--------------------------segunda cuerda
G----5--------------------------tercera cuerda
D----5--------------------------cuarta cuerda
A----3--------------------------quinta cuerda
E-------------------------------sexta cuerda
Esto es un acorde. Arriba va el nombre del acorde y abajo como se ponen
los dedos segn los nmeros, es facil y con la practica podrs
dominarlos.
Acordes basicos para guitarra puestos en tablatura:

E5 F5 F#5 G5 G#5A5 A#5 B5 C5 C#5D5 D#5


|----------------------------------------------------------------------|
|--------------------------------------------------------------3-------|
|------9--------10--------------------2---3---4---5---6---7----2---8---|

|-2----9---3----10---4---5---6---7----2---3---4---5---6---7---0---8---|
|-2-or-7---3----8---4---5---6---7---0---1---2---3---4---5--------6---|
|-0--------1---------2---3---4---5-------------------------------------|

Acordes menores de guitarra


Em Fm Gm Am Bm Cm Dm
|-0---1---3---0---2---3---1-|
|-0---1---3---1---3---4---3-|
|-0---1---3---2---4---5---2-|
|-2---3---0---2---4---5---0-|
|-2---3-------0-------------|
|-0---1---------------------|

Definicion del tabulado para guitarra


Los siguientes simbolos son los mas frecuentes en las ttablaturas para
guitarra, en algunos puede que estos no signifiquen lo mismo, de todas
maneras es muy usual que, en estos casos, la persona que lo ha hecho
explique lo que realmente quieren significar.
Se ponen en ingls, porque asi es como mayormente se conocen.
) = Bend
/ = Slide
~~ = Vibrato
h = Hammer on
p = Pulloff
PM = Palm mute
x\x = Pick scrape (rasgar con la pua)
NH = Armonico natural (Natural armonic)
+ = Tremelo Pick
) = Unison Bend

| = Ghost Bend (Bend fantasma)


|\ = Ghost Bend and release (Bend fantasma y soltar)
* = Retroalimentacion descontrolada (Uncontrolled feedback)

BEND:
Se toca la primera nota y luego se estira la cuerda con el dedo que
presiona el mstil hasta alcanzar un sonido de un medio tono, un tono
completo o segun se indique.
E-|------------------|
B-|----5)------------|
G-|------------------|
D-|------------------|
A-|------------------|
E-|------------------|

HARMONICO NATURAL:
Se toca la cuerda ligeramente sin llegar a presionar con la mano que toca
el mstil en el traste que se indique y despues es tocada la nota.

HARMONICO ARTIFICIAL (PINCH):


Despues de que la nota es tocada normalmente, se toca ligeramente con la
punta de el dedo de la mano que hace el pick , sin llegar a apagar el
sonido de la nota (una octava ms arriba de la nota tocada originalmente)
para producir el sonido de un harmnico. (pinch) A.H.
E-|----9-------------|
B-|------------------|
G-|------------------|
D-|------------------|
A-|------------------|
E-|------------------|

PALM MUTE:
La nota es ligeramente apagada con el filo de la mano que hace el pick

mientras esta esta tocando las notas.


E-|------------------|
B-|------------------|
G-|------------------|
D-|------------------|
A-|------------------|
E-|--0--0--0--0------|

SLIDE:
Se toca la nota primera nota y se corre el dedo hasta un trasto ms
arriba o ms abajo segun sea el caso.La segunda nota no es tocada con la
mano que hace el pick.
E-|------------------|
B-|----5/8-----------|
G-|------------------|
D-|------------------|
A-|------------------|
E-|------------------|

SLIDE PICK:
Es lo mismo que el slide solo que la segunda nota si es tocada.
E-|------------------|
B-|----5/8-----------|
G-|------------------|
D-|------------------|
A-|------------------|
E-|------------------|

SLIDE LARGO:
Se hace el pick durante el slide hasta alcanzar la nota deseada.
E-|------------------|
B-|----/5------------|
G-|------------------|
D-|------------------|
A-|------------------|
E-|------------------|

SLIDE OFF:
Es el slide largo solo que hacia abajo.
E-|------------------|
B-|----5/----\5------|
G-|------------------|
D-|------------------|
A-|------------------|
E-|------------------|

PICK SLIDE:
Con el filo de el pick (pua) se presiona sobre los trastos y se hace el
slide.
E-|------------------|
B-|----x\------------|
G-|------------------|
D-|------------------|
A-|------------------|
E-|------------------|

HAMMER-ON:
Se toca la primera nota y la segunda se hace sonar por medio de un tap
(presionar el trasto de la guitarra y lograr un sonido sin necesidad de
hacer un punteo) la segunda nota.
E-|------------------|
B-|----5h7-----------|
G-|------------------|
D-|------------------|
A-|------------------|
E-|------------------|

PULL-OFF:
Se colocan los dos dedos en las notas que se van a tocar, se toca la
primera nota y se deja de presionar esta para dejar sonar la nota de ms
abajo. La segunda nota no es tocada con la mano que hace el pick
(punteo).

E-|------------------|
B-|----7p5-----------|
G-|------------------|
D-|------------------|
A-|------------------|
E-|------------------|

TREMOLO PICKING:
La nota es tocada con la mano que hace el pick hacia arriba y hacia abajo
lo ms rpido que sea posible.
E-|------------------|
B-|----5-------------|
G-|----/-------------|
D-|----/-------------|
A-|----/-------------|
E-|------------------|

VIBRATO:
Se toca la nota y se hace vibrar con el vibrato o palanca de la guitarra,
o bien haciendo un bend lo ms rpido posible hacia arriba y hacia
abajo.
E-|------------------|
B-|----5~------------|
G-|------------------|
D-|------------------|
A-|------------------|
E-|------------------|

Esto no es un curso, simplemente es lo mas basico para aprender a leer


tabs de guitarra. Recomiendo a los que empiezan a tocar la guitarra, que
antes de intentar tocar las canciones de sus grupos preferidos, que lo
mejor es aprender y practicar con acordes varios dias o semanas, hasta
coger cierta soltura en los dedos de las manos. Con la practica os
resultara mas facil.

Gua 3:

COMO APRENDER LEER TABLATURAS DE GUITARRA


Las tablaturas para guitarra son como una partitura que muestra la posicin de los dedos en la
guitarra, pero que no da datos de tonos ni duracin de las notas. Asi que para tocar una cancin a
traves de una tablatura, la debes haber escuchado antes para conocer el ritmo y sonido de la
guitarra.
Tambien te puede interesar:
Como afinar una guitarra
Tocar escalas de guitarra

En primer lugar, nos interesa saber el nombre de las partes que componen el mastil de la guitarra:
TRASTES: En el mstil se encuentran los trastes, que son las divisiones en que se divide.
CUERDAS: La guitarra tiene 6 cuerdas de distinto grosor, la ms fina que esta abajo, es la
denominada 1 cuerda, la siguiente es la 2, y as hasta la 6 que es la ms gruesa.
Mastil de la guitarra
......--Mi 1ra. ||---------|----------|----------|----------|---------|Si 2da. ||---------|----------|----------|----------|---------|Sol 3ra.||---------|----------|----------|----------|---------|Re 4ta. ||---------|----------|----------|----------|---------|La 5ta. ||---------|----------|----------|----------|---------|Mi 6ta. ||---------|----------|----------|----------|---------|......___/1 Traste . 2 Traste . 3 Traste . 4 Traste . 5 Traste

La tablatura se compone de seis lneas horizontales que representan las seis cuerdas de la guitarra,
la lnea de arriba es la 1 cuerda y la ltima lnea es la 6:
e------------------------------primera cuerda
B-----------------------------segunda cuerda
G-----------------------------tercera cuerda
D-----------------------------cuarta cuerda
A-----------------------------quinta cuerda
E-----------------------------sexta cuerda

En estas lneas estaran unos nmeros que muestran el traste que se tiene que pulsar:

e----1------------------------B-----------------------------G-------3---------------------D----------5------------------A-----------------------------E-----------------------------Esto quiere decir que debes comenzar el punteo de guitarra pulsando la cuerda primera(e) en el
traste 1, despus sigue la cuerda tercera(G) en el traste 3, despus sigues la cuerda cuarta(D) en el
traste 5.
Si encuentras un 0 en la tablatura te esta indicando que la cuerda hay que tocarla sin pulsarla.

Cuando en la tablatura hay unos nmeros sobre otros, los tienes que tocar al mismo tiempo y cada
uno en su traste. Esto se llamaria acorde y se define como: dos o ms notas sonando al mismo
tiempo.
e--2---------------------------primera cuerda
B--3---------------------------segunda cuerda
G------------------------------tercera cuerda
D------------------------------cuarta cuerda
A------------------------------quinta cuerda
E------------------------------sexta cuerda
En la tablatura de arriba hay dos notas una encima de otra, sin dejar espacio. Esto indica que hay
que tocarlas a la vez. La primera cuerda de la guitarra pisada en el traste 2 y la segunda cuerda
pisada en el traste 3, presionas las dos cuerdas a la vez en sus trastes correspondientes y las tocas al
mismo tiempo.

Acordes para guitarra puestos en tablatura


Ahora os mostramos algunos acordes basicos de guitarra puestos en tablatura:
Visita tambien: Acordes de guitarra
|----------------------------------------------------------------------|
|--------------------------------------------------------------3-------|
|------9--------10--------------------2---3---4---5---6---7----2---8---|
|-2----9---3----10---4---5---6---7----2---3---4---5---6---7---0---8---|
|-2-or-7---3----8---4---5---6---7---0---1---2---3---4---5--------6---|
|-0--------1---------2---3---4---5-------------------------------------|

|-0---1---3---0---2---3---1-|

|-0---1---3---1---3---4---3-|
|-0---1---3---2---4---5---2-|
|-2---3---0---2---4---5---0-|
|-2---3-------0-------------|
|-0---1---------------------|

Estos simbolos suelen estar escritos en ingls:


) = Bend
/ = Slide
~~ = Vibrato
h = Hammer on
p = Pulloff
PM = Palm mute
xx = Pick scrape (rasgar con la pua)
NH = Armonico natural (Natural armonic)
+ = Tremelo Pick
) = Unison Bend
| = Ghost Bend (Bend fantasma)
| = Ghost Bend and release (Bend fantasma y soltar)
* = Retroalimentacion descontrolada (Uncontrolled feedback)

A continuacion os explicamos que hay que hacer en algunas de las tecnicas mas comunes:

BEND:
Se toca la primera nota y luego se estira la cuerda de la guitarra con el dedo que presiona el mstil
hasta alcanzar un medio tono, tono completo o segun se indique.
E-|------------------|
B-|----5)------------|
G-|------------------|
D-|------------------|
A-|------------------|

E-|------------------|

HARMONICO NATURAL:
Se toca la cuerda ligeramente sin llegar a presionar con la mano que toca el mstil en el traste que se
indique y despues pulsa en el trate la nota.

HARMONICO ARTIFICIAL (PINCH):


Despues de que la nota es tocada normalmente, se toca ligeramente con la punta de el dedo de la
mano que hace el pick , sin llegar a apagar el sonido de la nota (una octava ms arriba de la nota
tocada originalmente) para producir el sonido de un harmnico. (pinch) A.H.
E-|----9-------------|
B-|------------------|
G-|------------------|
D-|------------------|
A-|------------------|
E-|------------------|

PALM MUTE:
La nota es ligeramente apagada con el filo de la mano que hace el pick mientras esta esta tocando las
notas.
E-|------------------|
B-|------------------|
G-|------------------|
D-|------------------|
A-|------------------|
E-|--0--0--0--0-----|

SLIDE:
Se toca la nota primera nota y se corre el dedo hasta un trasto ms arriba o ms abajo segun sea el
caso.La segunda nota no es tocada con la mano que hace el pick.
E-|------------------|
B-|----5/8-----------|
G-|------------------|
D-|------------------|
A-|------------------|
E-|------------------|

SLIDE PICK:
Es lo mismo que el slide solo que la segunda nota si es tocada.
E-|------------------|
B-|----5/8-----------|
G-|------------------|
D-|------------------|
A-|------------------|
E-|------------------|

SLIDE LARGO:
Se hace el pick durante el slide hasta alcanzar la nota deseada>
E-|------------------|
B-|----/5------------|
G-|------------------|
D-|------------------|
A-|------------------|
E-|------------------|

SLIDE OFF:
Es el slide largo solo que hacia abajo.
E-|------------------|
B-|----5/----5------|
G-|------------------|
D-|------------------|
A-|------------------|
E-|------------------|

PICK SLIDE:
Con el filo de el pick (pua) se presiona sobre los trastos y se hace el slide.
E-|------------------|
B-|----x------------|
G-|------------------|
D-|------------------|
A-|------------------|

E-|------------------|

HAMMER-ON:
Se toca la primera nota y la segunda se hace sonar por medio de un tap (presionar el trasto de la
guitarra y lograr un sonido sin necesidad de hacer un punteo) la segunda nota.
E-|------------------|
B-|----5h7----------|
G-|------------------|
D-|------------------|
A-|------------------|
E-|------------------|

PULL-OFF:
Se colocan los dos dedos en las notas que se van a tocar, se toca la primera nota y se deja de
presionar esta para dejar sonar la nota de ms abajo. La segunda nota no es tocada con la mano que
hace el pick (punteo).
E-|------------------|
B-|----7p5-----------|
G-|------------------|
D-|------------------|
A-|------------------|
E-|------------------|

TREMOLO PICKING:
La nota es tocada con la mano que hace el pick hacia arriba y hacia abajo lo ms rpido que sea
posible.
E-|------------------|
B-|----5-------------|
G-|----/-------------|
D-|----/-------------|
A-|----/-------------|
E-|------------------|

VIBRATO:

Se toca la nota y se hace vibrar con el vibrato o palanca de la guitarra, o bien haciendo un bend lo
ms rpido posible hacia arriba y hacia abajo.
E-|------------------|
B-|----5~-----------|
G-|------------------|
D-|------------------|
A-|------------------|
E-|------------------|

Escalas
Algunos tipos de escalas de guitarra
ESCALA CROMATICA: Esta escala es las ms importantes de todas las escalas ya que esta
formada por todas las notas posibles. El resto de las escalas son subsidiarias de la escala
cromtica. La diferencia entre unas escalas y otras radica en los intervalos entre sus notas.
ESCALA MAYOR: La escala mayor tiene 7 notas. Todas estn separadas por un tono con
excepcin de los grados III-IV y VII-I. Sabiendo que ni el MI y el SI tienen sostenidos. Como
ejemplo, la escala de DO mayor estara formada por las siguientes notas: DO - RE - MI - FA - SOL LA - SI
ESCALA MENOR: Al igual que la escala mayor, la escala menor tambin tiene 7 notas. De la
escala menor existen 3clases diferentes: menor natural, menor armnica y menor meldica. La
diferencia entre estos 3 tipos de escala es la alteracin en las notas VI y VII.
ESCALAS PENTATONICAS: Las escalas pentatnicas son las escalas formadas por cinco notas.
Son las mas fciles de tocar y son muy utilizadas en el rock y el blues.
Aprender tocar escalas de guitarra
Para aprender a tocar escalas de guitarra, es muy importante mantener relajada la mano que esta
en el traste, mientras intentamos pulsar la cueerda perpendicularmente con los dedos. Para
aprender tocando con escalas hay que tener paciencia y empezar poco a poco. Con la prctica,
llegara el momento en que las tocaremos de forma natural y los propios dedos las tocaran sin
necesidad de pensar demasiado. Recuerda que una escala bien aprendida es la base para realizar
un solo de guitarra o para poder improvisar.

Para practicar con las escalas de guitarra lo mejor es empezar por las escalas pentatnicas, ya que
son las ms fciles de aprender y las que dan mejor juego con un instrumento como la guitarra.
Adems es la escala mas utilizada en la msica rock en general.
Recuerda que cualquier escala puede ser tocada en diferentes tonalidades. Una vez sepas como
se hace la escala, se puede tocar en cualquier parte del mstil. Con la prctica se va adquiriendo
un poco de odo y llega el momento en que de forma natural los mismos dedos enlazan
instintivamente diferentes escalas.

Nada valgo

hOlA AmIgOs cOmO eStAn AqUi lEs manDo oTrA VeRsIoN


dE eStA MaCnIfIcA rOlA oJaLa La PuEDaN tOcAr eS mUy
sEnCiLlA sOlO tIeNeN q sUEgUiR eL rITmO...oJAkA lA pOnGaN eN lA pAhInA
pOrQ cOnSiDeRo Q eS uNa dE lAS mEJOREs..sAlUdOs a mErIda
dE sU cOmpA NAHUM
C
E|---------------------|
B|------1-------1------|
G|----0-------0--------|
D|----------2----------|
A|--3------------------|
E|---------------------|

Em
E|---------------------|
B|------3-------1------|
G|----0-------0--------|
D|----------0----------|
A|--2------------------|
E|---------------------|

Am
E|------------------------------------|
B|------1-------1------1------1-------|
G|----2-------2------2------2---------|
D|----------2-------------2-----------|
A|--0--------------0------------------|
E|------------------------------------|

F
E|---------------------|
B|------1-------1------|
G|----2-------2--------|
D|----------3----------|
A|--3------------------|
E|---------------------|

D5
E|---------------------|
B|------3-------3------|
G|----2-------2--------|
D|----------0----------|
A|--0------------------|
E|---------------------|

G/F/E/D
E|---------------------------|
B|------3-----1-----0-----0--|
G|----4-----0-----0-----0----|
D|--5-----3-----2-----0------|
A|---------------------------|
E|---------------------------|

--ARPREGIO--

C
Cuando el tiempo pasa
Em
Am
y nos hacemos viejos nos empieza a parecer
F
que pesan ms lo daos
D5
G/F/E/D
que los mismos aos, al final
C
Em
por eso yo quiero que mis aos pasen
Am
junto a t, mi amor eterno
F
D5
G/F/E/D5
junto a mi familia, junto a mis amigos y mi voz
--rASQUEO--

Am
G
porque nada valgo, porque nada tengo
Em*
C
si no tengo lo mejor
F
C
G/F/Em/D5
tu amor y compaa en mi corazn.
--aRPREJIO--

C
Em*
Y es que vale ms un ao tardo
Am
que un siglo vaco, amor
F
y es que vale ms
D5
G/F/E/D5
tener bien llenito el corazn
C
Em*
por eso yo quiero que en mi mente siempre
Am
tu cario est bien fuerte
F
aunque estemos lejos,
D5
G/F/E/D5
aunque estemos cerca del final.

--rASQUEO--

Am
G
porque nada valgo, porque nada tengo
Em*
C
si no tengo lo mejor
F
C
G
tu amor y compaa en mi corazn..VEN AMOR
CORO----RASQUEO---

C
Me siento dbil cuando estoy sin t
Am
y me hago fuerte cuando ests aqu
F
sin t yo ya no s qu es vivir,
G
mi vida es un tnel sin tu luz
C
quiero pasar ms tiempo junto a ti
Am
recuperar las noches que perd
F
vencer el miedo inmenso de morir
G
y ser eterno junto a t,
Am
G
porque nada valgo, porque nada tengo
Em*
C
si no tengo lo mejor
F
C
G/F/Em/D5
tu amor y compaa en mi corazn.
--ARPREGIO--

C
Em*
por eso yo quiero que en mi mente siempre
Am
tu cario est bien fuerte
F
aunque estemos lejos,
D5
G/F/Em/D
aunque estemos cerca del final.
--rASQUEO--

Am
G
porque nada valgo, porque nada tengo
Em*
C
si no tengo lo mejor
F
C
G
tu amor y compaa en mi corazn..VEN AMOR
CORO----RASQUEO---

C
Me siento dbil cuando estoy sin t

Am
y me hago fuerte cuando ests aqu
F
sin t yo ya no s qu es vivir,
G
mi vida es un tnel sin tu luz
C
quiero pasar ms tiempo junto a ti
Am
recuperar las noches que perd
F
vencer el miedo inmenso de morir
G
y ser eterno junto a t,
Am
G
porque nada valgo, porque nada tengo
Em*
C
si no tengo lo mejor
F
C
G/F/Em/D
C
tu amor y compaa en mi corazn.

Adis le pido

esta es la mejor vesrsion de el solo de a dios le pido tienen que


escuchar
la cancion para saber el ritmo saludos.francisco
E|-5-5-5-8-8-8-5-5-5-5-5-4|-----------------------------|
B|-5-5-5-------5-5-5-5-5--|-----------------------------|
G|-5-5-5-------5-5-5-5-5--|-----4-7-4---4-7-4--4-7-4----|
D|------------------------|---6-------6-------6------6-7|
A|------------------------|-----------------------------|
E|------------------------|-----------------------------|
E|-5-5-5-8-8-8-5-5-5-5-5-4|-----------------------------|
B|-5-5-5-------5-5-5-5-5--|-----------------------------|
G|-5-5-5-------5-5-5-5-5--|-----4-7-4---4-7-4--4-7-4----|
D|------------------------|---6-------6-------6------6-7|
A|------------------------|-----------------------------|
E|------------------------|-----------------------------|
E|-----------------------------------------------|
B|-----5---5-------5---5-------------------------|
G|---5---5---5---5---5---7-4-----4-7-7--4-7-7----|
D|-7-----------7-------------6-6------6------6-7-|
A|-----------------------------------------------|
E|-----------------------------------------------|
E|-----------5---5---5-5---4---|---7-10-8-7----8-7---------|
B|-----5---5---5---5-----5---5-|-9----------10-----10-9-10-|
G|---5---5---------------------|---------------------------|
D|-7---------------------------|---------------------------|
A|-----------------------------|---------------------------|

E|-----------------------------|---------------------------|

Am
Que mis ojos se despierten
E
con la luz de tu mirada
yo a Dios le pido
Am
Dm
que mi madre no se muera
E
y que mi padre me recuerde
a Dios le pido
Am
Dm
Que te quedes a mi lado
E
y que ms nunca te me vayas mi vida
a Dios le pido
Am
Dm
que mi alma no descanse
E
cuando de amarte se trate mi cielo
a Dios le pido
Am
Por los das que me quedan
E
y las noches que aun no llegan
yo a Dios le pido
Am
Dm
por los hijos de mis hijos
E
y los hijos de tus hijos
a Dios le pido
Am
Dm
Que mi pueblo no derrame tanta sangre
E
y se levante mi gente
a Dios le pido
Am
Dm
que mi alma no descanse
E
cuando de amarte se trate mi cielo
a Dios le pido
Am
E
Un segundo mas de vida para darte
G
D
y mi corazn entero entregarte
Am
E
un segundo mas de vida para darte
G
D
y a tu lado para siempre yo quedarme
Am

un segundo mas de vida


E
yo a Dios le pido
C
G
Que si me muero sea de amor
Am
y si me enamoro sea de vos

E
y que de tu voz sea este corazn
todos los das a Dios le pido
C
G
que si me muero sea de amor
Am
y si me enamoro sea de vos
E
y que de tu voz sea este corazn
todos los das yoooooo a Dios le pido
Am
a Dios le pido