You are on page 1of 18

IM YOURS

Track 1 (Capo 4)
H
Q
Q
Q
E E E E E E
E E E E Q
Q
E||----------------/5----|--3----------------------|-------------------/5----|
B||----------------/5----|--3----------------------|-------------------/5----|
G||----------------------|-------x--0--------x--0--|--------x--0-------------|
D||----------------------|-------x--------0--x-----|-----0--x----------------|
G||----------------------|--0----------0-----------|--0-----------0----------|
D||----------------------|-------------------------|-------------------------|
Q
E E E E E E
E E E E Q
Q
Q
E E E E E E
--2-------2-----------2--|-----------2-------------|-------------------------|
--3-------3-----------3--|-----------3-------/5----|--0-------0-----------0--|
-------x--------2--x-----|-----2--x----------------|--0----x--0--------x--0--|
-------x-----------x-----|--------x----------------|-------x--------2--x-----|
-------------------------|-------------------------|-------------------------|
--0----------0-----------|--0-----------0----------|--2----------2-----------|
^
E E E E E E E E
Q
E E E E E E
--------------------------|---------------------------|
-----------0--------------|--0g1-------------1--------|
--------x--0--------x-----|----0----x--0--------x--0--|
-----2--x--------2--x-----|----2----x-----------x-----|
-----------------------5--|---------------5-----------|
--2-----------2-----------|---------------------------|
E E E E E E E E
E E E E E E E E
--------------------------|--------------------------|
-----1-----------0--------|--0-----------------------|
--------x--0--------x--0--|-----0--x--0--------x--0--|
--------x-----------x-----|--------x--------0--x-----|
--5-----------5-----------|--0-----------------------|
--------------------------|--------------0-----------|
E E E E E E E E
E E E E E E E E
--------------------------|--------------------------|
-----------------0--------|--0-----------------------|
--0--0--x--2--------x--0--|--------x-----------x-----|
--------x-----------x-----|-----4--x--4--------x--4--|
--0-----------0-----------|-----------------2--------|
--------------------------|--0-----------0-----------|
E E E E E E E E
E E E E E E
E E
Q
E E E E Q
--------------------------|---------------------------|------------------------|
--------------------------|--0------------------------|------------------------|
--------x--------2--L-----|-----0--x--0---------x-----|-------x-----------x----|
--4--4--x--5--------x--0--|-----2--x--2-----4S--L--2--|-------x--2--------0----|
--------------------------|---------------------------|----------------0-------|
--0-----------0-----------|--2-----------2------------|--2----------2----------|
Q
E Q
E E E
E E
E E E E E E
E E E E E E E E
------------------------|---------------------------|--------------------------|
----------1----0-----0--|------------------0--------|--0-----------------------|
-------x--0----0--x--0--|-----2p--0--------0--x--0--|-----0--x--0--------x--0--|
-------x----------x-----|---------x--0--------x-----|--------x--------0--x-----|
--5-------5-------------|--5------------5-----------|--0-----------------------|
------------------------|---------------------------|--------------0-----------|
E E E E E E E E
E E E E E E E E
--------------------------|--------------------------|
-----------------0--------|--0-----------------------|
--0--0--x--2--------x--0--|--------x-----------x-----|
--------x-----------x-----|-----4--x--4--------x--4--|
--0-----------0-----------|-----------------2--------|
--------------------------|--0-----------0-----------|
E E E E E E E E
E E E E E E
E E
Q
E E E E Q
--------------------------|---------------------------|------------------------|
--------------------------|--0------------------------|------------------------|
--------x--------2--L-----|-----0--x--0---------x-----|-------x-----------x----|

--4--4--x--5--------x--0--|-----2--x--2-----4S--L--2--|-------x--2--------0----|
--------------------------|---------------------------|----------------0-------|
--0-----------0-----------|--2-----------2------------|--2----------2----------|
^
Q
E E
E
E E E
Q
E E Q
E E
---------------------------|--------------------------|
---------------------------|--0g1----------0----L-----|
-------x-------------x-----|----0----x--0-------x--0--|
-------x--2----------x-----|----0----x----------x-----|
--5----------(5)--5-----5--|---------------5----------|
---------------------------|--------------------------|
^
Q
E
E
Q
E
E
Q
E
E
Q
E
E
----------------------------|----------------------------|
--0----L--------------------|---------------0----L-------|
-------x-------0----L-------|-------x-------0----x-------|
-------x--(0)-------x--(0)--|--0----L--(0)-------x--(0)--|
--0------------0------------|--0------------0------------|
----------------------------|----------------------------|
^
Q
E
E
Q
E
E
E E E E Q
S S E
----------------------------|----------------------------|
----------------------------|----------------------------|
--2----L------------x-------|--------x-----2s----3s-2----|
-------x-------4----L-------|--0--L--x--0--0-----x--L-0--|
----------(0)----------(2)--|-----2----------------------|
--0------------0------------|--0--L--------0-------------|
E E E E Q
E
E
Q
E E Q
E E
-----------------------------|------------------------|
-----------------------------|------------------------|
--0--L--x-----0-----x--------|-------x-----0----L-----|
-----2--x--2-------(2)-------|--2----L--2-------x--0--|
------------------------(0)--|------------------------|
--2--L--------2--------------|--2----------2----------|
^
Q
E E
Q
E E
Q
E
E E E E E
Q
E E E E E E
--------------------------|--------------------------|-------------------------|
-------------0g1----------|--0-----------------------|-------------------------|
-------x-------0----x--0--|--0----2p--0--L-----x--0--|--L----x--0--------x-----|
-------x-------0----x-----|--------------x--0--x-----|-------x--------0--x--0--|
--5-------5---------------|--5-----------------------|--0----------------------|
--------------------------|--------------------------|-------------0-----------|
E E E E E E E E
E E
E E Q
E E
--------------------------|--------------------------|
--------------------------|-----3S--L--5--3-------3--|
--------x--0-----2--0-----|---------x----------x-----|
-----0--x--------------4--|---------x----------x-----|
--0-----------0-----------|--------------------------|
--------------------------|--0------------0----------|
E E E E E E E E
Q
E E E
E
E E
--------------------------|---------------------------|
-----------3--------------|---------------------------|
--------x-----------x-----|-------x-------------x--0--|
-----4--x--------0--x--2--|-------x--2-----(2)--x-----|
--------------------------|---------------------------|
--0-----------0-----------|--2----------2-------------|
E E E E E E E
E
Q
E E E E E E
----------------------------|---------------------------|
----------------------------|---------------------------|
--------x--0--------x-------|---------x-----------x-----|
-----2--x--------0--x--(0)--|--0g2----x--2-----2--x--2--|
----------------------------|----5----------5-----------|
--2-----------2-------------|---------------------------|

E E E E E E E E
E E E E E E E E
--------------------------|--------------------------|
-----------------0--L-----|--0--L--------------------|
--------x--------0--x--0--|--0--0--x--0--------x--0--|
-----2--x--2--------x-----|--------x--------0--x-----|
--5-----------5-----------|--0-----------------------|
--------------------------|--------------0-----------|
E E E E
E E E E
Q
E E E
E E
E
---------------------------|---------------------------|
------------------0-----3--|--L----------3p--0--3p--0--|
--0--0--x--0h--2-----x-----|-------x-------------------|
--------x------------x-----|-------x--4---------x------|
--0------------0-----------|---------------------------|
---------------------------|--0----------0-------------|
Q
E E E E E E
Q
E E E E E E
E E E E E
E E E
-------0-----------------|-------------------------|---------------------------|
--3----------0--------0--|-------------0--3-----1--|-----0-----0---------------|
----------------2--L-----|-------x-----------x-----|--------2-----2p--0--x-----|
-------------------x-----|-------x--2--------x-----|---------------------x-----|
-------------------------|-------------------------|------------------------5--|
--0-------0--------------|--2----------2-----------|--2------------------------|
^
|--3--|
Q
E E E E E E E
Q
E E Q
E E
------------------------------|------------------------|
--0g1-------------0-----0-----|--0---------------------|
----0----x--0-----0--x-----2--|--0----x----------x-----|
----0----x-----------x--------|-------x-----0----x--0--|
---------------5--------------|--5-------5-------------|
------------------------------|------------------------|
E E E E E E E E
E E E E
E E E E
--------------------------|---------------------------|
--------------------------|------------------0-----3--|
--0--0--x--0--------x--0--|-----0--x--0h--2-----x-----|
--------x--------0--x-----|--------x------------x-----|
--0-----------------------|--0------------0-----------|
--------------0-----------|---------------------------|
Q
E E E
E E
E
Q
E E E E E E
Q
E E E E E E
---------------------------|-------0-----------------|-------------------------|
--L----------3p--0--3p--0--|--3----------0--------0--|-------------0--3--------|
-------x-------------------|----------------2--L-----|-------x-----------x--0--|
-------x--4---------x------|-------------------x-----|-------x--2--------x-----|
---------------------------|-------------------------|-------------------------|
--0----------0-------------|--0-------0--------------|--2----------2-----------|
^
E E E E E
E E E
Q
E E E E E E
---------------------------|---------------------------|
-----0-----0---------------|--0g1-------------0--------|
--------2-----2p--0--x-----|----0----x--0--------x--2--|
---------------------x-----|----0----x-----------x-----|
------------------------5--|---------------5-----------|
--2------------------------|---------------------------|
^
Q
E E Q
E E
E E H
Q
E Q.
E Q
E
------------------------|----------------------|------------------------|
------------------------|-----0----------------|----------------0-------|
--0----x----------x-----|--------2--------L----|--L--2\------x--0----0--|
-------x-----0----x-----|--5-----5--------L----|--L--5-------x----------|
--5-------5----------6--|----------------------|-----6------------------|
------------------------|----------------------|------------------------|
^

Q
E
E
Q
E
E
Q
E
E
Q
E
E
----------------------------|----------------------------|
--0----L--------------------|---------------0----L-------|
-------x-------0----L-------|-------x-------0----x-------|
-------x--(0)-------x--(0)--|--0----L--(0)-------x--(0)--|
--0------------0------------|--0------------0------------|
----------------------------|----------------------------|
^
Q
E
E
Q
E
E
E E E E Q
S S E
----------------------------|----------------------------|
----------------------------|----------------------------|
--2----L------------x-------|--------x-----2s----3s-2----|
-------x-------4----L-------|--0--L--x--0--0-----x--L-0--|
----------(0)----------(2)--|-----2----------------------|
--0------------0------------|--0--L--------0-------------|
E E E E Q
E
E
Q
E E Q
E E
-----------------------------|------------------------|
-----------------------------|------------------------|
--0--L--x-----0-----x--------|-------x-----0----L-----|
-----2--x--2-------(2)-------|--2----L--2-------x--0--|
------------------------(0)--|------------------------|
--2--L--------2--------------|--2----------2----------|
^
Q
E E
Q
E E
Q
E
E E E E E
--------------------------|--------------------------|
-------------0g1----------|--0-----------------------|
-------x-------0----x--0--|--0----2p--0-----2--L--0--|
-------x-------0----x-----|--------------x-----x-----|
--5-------5---------------|--5-----------------------|
--------------------------|--------------------------|
^
Q
E
E
Q
E
E
Q
E
E
Q
E
E
----------------------------|----------------------------|
--0----L--------------------|---------------0----L-------|
-------x-------0----L-------|-------x-------0----x-------|
-------x--(0)-------x--(0)--|--0----L--(0)-------x--(0)--|
--0------------0------------|--0------------0------------|
----------------------------|----------------------------|
^
Q
E
E
Q
E
E
E E E E Q
S S E
----------------------------|----------------------------|
----------------------------|----------------------------|
--2----L------------x-------|--------x-----2s----3s-2----|
-------x-------4----L-------|--0--L--x--0--0-----x--L-0--|
----------(0)----------(2)--|-----2----------------------|
--0------------0------------|--0--L--------0-------------|
E E E E Q
E
E
Q
E E Q
E E
-----------------------------|------------------------|
-----------------------------|------------------------|
--0--L--x-----0-----x--------|-------x-----0----L-----|
-----2--x--2-------(2)-------|--2----L--2-------x--0--|
------------------------(0)--|------------------------|
--2--L--------2--------------|--2----------2----------|
^
Q
E E
Q
E E
Q
E
E E E E E
Q
E E E E E E
--------------------------|--------------------------|-------------------------|
-------------0g1----------|--0-----------------------|----------------0--------|
-------x-------0----x--0--|--0----2p--0--------x--0--|-------2--0--2-----x--0--|
-------x-------0----x-----|--------------x--0--x-----|-------x-----------x-----|
--5-------5---------------|--5-----------------------|--0----------0-----------|
--------------------------|--------------------------|-------------------------|
E E E E E
E E E
E E E E
E E
E E
--------0------------------|----------------------------|

-----------0------------0--|--------3--1p--0------------|
-----0--------2p--0--2-----|------------------2p--0-----|
---------------------------|-----2-------------------2--|
--0------------------------|----------------------------|
---------------------------|--2-------------------------|
[ Tab from: http://www.guitaretab.com/s/sungha-jung/255483.html ]
^
E E E E E E
E E
E E Q
E E E E
---------------------------|-------------------------|
--------0--3-----1p--0-----|-------------------------|
--------0---------------2--|-----0-------x-----------|
-----2---------------------|--------2----x--2-----2--|
---------------------------|--5----------------5-----|
--2-----------2------------|-------------------------|
^
^
^
E E E E E E E E
E E E E E E E E
--------------------------|---------------------------|
-----------------------0--|--L------------------------|
--x-----------x--------0--|--L--2--x--------2--x--2\--|
--x--2-----2--x--0-----5--|--L-----x--5--------x--5---|
--------5-----------6-----|--------------6--------6---|
--------------------------|---------------------------|
^
Q
E E
E E E
E
Q
E E E
Q
E
---------------------------|-------------------------|
-------0--3p--1--0---------|----------------/5----3--|
--L-----------------2p--0--|-------x--0--------------|
--L------------------------|-------x-----------------|
--L------------------------|--0----------0-----------|
---------------------------|-------------------------|
E E
E E E
E E
E
Q
E E
E E
E E
-----------------------------|---------------------------|
-----1p--0------------0h--1--|--0----3--1p--0------------|
------------2--0h--2---------|-------x---------2p--0-----|
-----------------------------|-------x-------------x--0--|
-----------------------------|---------------------------|
--0--------------------------|--2------------------------|
^
Q
E E E
E E
E
Q
E E E E E E
---------------------------|-------------------------|
-------3-----1p--0---------|-------------------------|
--0----0------------2p--0--|-------x-----------x-----|
--2------------------------|--2----x--2-----2--x--2--|
---------------------------|--5----------5-----------|
--2-------2----------------|-------------------------|
^ ^
^
E E E E E E E E
E E E E E E E E
H
E E
E E
--------------------------|--------------------------|---------------3h--7-----|
--------------------------|--0--L--------------0-----|-------------------------|
--------x-----------x-----|--0--L--2--x--------2--x--|--2\--------x---------0--|
-----2--x--2-----0--x-----|--5--L-----x--5--------x--|--5---------x------------|
--5-----------5--------6--|-----------------6--------|--6----------------------|
--------------------------|--------------------------|-------------------------|
E E E E
E
E E E
E E E E E E E
E
--7--3-----3-------------3--|--3--3-----5-----7----------|
-------------------0--------|----------------------------|
--------x----------0--x-----|--------x-----------x--(7)--|
--------x-------------x-----|--------x-----------x-------|
--0--L----------------------|--0--L--------0-------------|
--------------(0)-----------|----------------------------|
E E E E E E E E
E E E E E
E E E
--7-----------------------|---------------------------|
-----7-----7-----------7--|--7--7-----8-----10--------|
-----7--x--7-----7--x-----|--------x------------x--7--|

--------x-----------x-----|--------x------------x-----|
--------------------------|---------------------------|
--0-----------0-----------|--0-----------0------------|
E E E E E E E E
Q
E E Q
Q
Q
E
Q
E E E
--7-----------------------|-----------------------|----------7g8----7-----7h--|
-----8-----8-----7--------|-----------------------|------------5----5---------|
-----7--x--7--------x--9--|-------x--9-------7----|--5----x------------x------|
--------x-----------x-----|-------x---------------|-------x------------x------|
--9-----------9-----------|--9----------9---------|--5---------5----L---------|
--------------------------|-----------------------|---------------------------|
E E Q
E E E E
E
E E E
E
E E E
--L--5----------7-----3--|--7p--3-----3-------------3--|
--------8-------0--------|--------------------0--------|
-------------x-----x-----|---------x----------0--x-----|
-------------x-----x-----|---------x-------------x-----|
--5----------------------|--0---L----------------------|
-------------------------|---------------(0)-----------|
E E E E E E E
E
E E E E E E E E
--3--3-----5-----7----------|--7-----------------------|
----------------------------|-----7-----7-----------7--|
--------x-----------x--(7)--|-----7--x--7-----7--x-----|
--------x-----------x-------|--------x-----------x-----|
--0--L--------0-------------|--------------------------|
----------------------------|--0-----------0-----------|
E E E E E
E E E
E E E E E E E E
Q
E E Q
Q
---------------------------|--7-----------------------|-----------------------|
--7--7-----8-----10--------|-----8-----8-----7--------|-----------------------|
--------x------------x--7--|-----7--x--7--------x--9--|-------x--9-------7----|
--------x------------x-----|--------x-----------x-----|-------x---------------|
---------------------------|--9-----------9-----------|--9----------9---------|
--0-----------0------------|--------------------------|-----------------------|
^
^
^
Q
E E E E E E
Q
E E Q
E E
H
H
-------------------------|--7g8----------7----------|--7--------3--------|
----------5--------------|----5---------------------|--0--------0--------|
--5----x--------5--x-----|----5----x--5-------x-----|--0--------0--------|
-------x-----------x-----|---------x----------x-----|--------------------|
--5----------5--------5--|---------------5-------0--|--------------------|
-------------------------|--------------------------|--------------------|
^
^
^
^
H
H
H
H
H
Q
E
E
-----------/7--------|---------------------|---------------------------|
--3---------0--------|--10--------7--------|-----------10s----11s--10--|
--0---------0--------|---7-----------------|--7---------7--------------|
---------------------|---------------------|---------------------------|
---------------------|---------------------|---------------------------|
---------------------|---0-----------------|------------0--------------|
^
^
^
Q
Q
H
H
H
H
H
---------------------|--------------------|-----------/8--------|
--8---------8--------|-----------8--------|------------5--------|
--7------------------|--9-----------------|--5---------5--------|
---------------------|--------------------|--5------------------|
-------9-------------|--------------------|--5------------------|
---------------------|--------------------|---------------------|
^
^
^
^
^
Q.
E Q
E E
H
H
H
H
--7p------5-------5-----|--7--------3--------|-----------/7--------|
--5----------8-------8--|--0--------0--------|--3---------0--------|
--5---------------------|--0--------0--------|--0---------0--------|
------------------------|--------------------|---------------------|
------------------------|--------------------|---------------------|
------------------------|--------------------|---------------------|

^
^
^
H
H
H
Q
E
E
Q
Q
H
---------------------|---------------------------|---------------------|
--10--------7--------|-----------10s----11s--10--|--8---------8--------|
---7-----------------|--7---------7--------------|--7------------------|
---------------------|---------------------------|---------------------|
---------------------|---------------------------|-------9-------------|
---0-----------------|------------0--------------|---------------------|
^
^
^
H
H
H
H
Q.
E Q
E E
--------------------|-----------/8--------|--7p------5-------5-----|
-----------8--------|------------5--------|--5----------8-------8--|
--9-----------------|--5---------5--------|--5---------------------|
--------------------|--5------------------|------------------------|
--------------------|--5------------------|------------------------|
--------------------|---------------------|------------------------|
Q
E E E E E E
E E E E
E E E E
-------------------------|---------------------------|
-------------------------|------------------0-----3--|
-------x--0--------x--0--|--------x--0h--2-----x-----|
-------x--------0--x-----|-----0--x------------x-----|
--0----------------------|--0------------0-----------|
-------------0-----------|---------------------------|
Q
E E E
E E
E
Q
E E E E E E
Q
E E E E E E
---------------------------|-------0-----------------|-------------------------|
--L----------3p--0--3p--0--|--3----------0--------0--|-------------0--3-----1--|
-------x-------------------|----------------2--L-----|-------x-----------x-----|
-------x--4---------x------|-------------------x-----|-------x--2--------x-----|
---------------------------|-------------------------|-------------------------|
--0----------0-------------|--0-------0--------------|--2----------2-----------|
^
E E E E E
E E E
Q
E E Q
E E
---------------------------|-------------0----------|
-----0-----0---------------|-------------3----3-----|
--------2-----2p--0--x--0--|--L----x-----0----------|
---------------------x-----|-------x----------------|
---------------------------|--5-------5----------5--|
--2------------------------|------------------------|
E
E E
E E E E E
Q
E E Q
E E
Q
E E E E E E
----------------------------|------------------------|-------------------------|
--1p--0------------0--------|--0----------0----------|--0-------------3--------|
---------2p--0--x--0--x--0--|-------x--0-------x--0--|-------x--0-----0--x--0--|
----------------x-----x-----|-------x----------x-----|-------x-----------x-----|
----------------------------|--0----------0----------|--0----------0-----------|
----------------------------|------------------------|-------------------------|
Q
E E E E E E
Q
E E E E E E
-------0-----------------|-------------------------|
--3-------3--1--0--1-----|----------------3--------|
----------------------2--|--L----x--2--------x-----|
-------------------------|-------x-----------x--0--|
--0----------------------|-------------------------|
-------------------------|-------------0-----------|
E E E E
E E E
E
E E E E E E E
E
-----0----------------------|----------------------------|
--3--------1p--L--0---------|----------------------------|
--------x------------2p--0--|--x--------0--x-----x-------|
--------x-------------------|--x--2--------x--0--x--(0)--|
----------------------------|----------------------------|
--2------------2------------|--------2-------------------|

^
Q

H.

---------------------------|--------------------------|--------------------|
---------------------------|--------------------------|--0-----------------|
---------x-----------x-----|--------x--------0--x-----|--0----2------------|
--0g2----x--2-----2--x--2--|-----2--x--2-----0--x-----|--0-----------------|
----5----------5-----------|--5-----------5--------6--|--------------------|
---------------------------|--------------------------|--------------------|
H
Q
E E
E
E E E E
E E E
Q
E E E E E E
----------------------|----------------------------|-------------------------|
----------------3--3--|--1p--0-----0---------------|-------------------------|
--L-------------------|---------2-----2p--0-----0--|-------x--0--------x--0--|
----------------------|----------------------0-----|--0----x--------0--x-----|
----------------------|----------------------------|--0----------0-----------|
----------------------|----------------------------|-------------------------|
E E E E E E E E
Q
E E E E E E
E E E E E E E E
--------------------------|-------------------------|--------------------------|
--------------------------|-------------------------|--------------------------|
--------x--0--------x-----|-------x-----------x-----|--------x-----------x-----|
-----0--x--------0--x--4--|-------x--4--------x--4--|--------x--4-----0--x--2--|
--0-----------0-----------|----------------2--------|-----2--------------------|
--------------------------|--0----------0-----------|--0-----------0-----------|
Q
E E E E E E
E E E E E E E
E
-------------------------|----------------------------|
-------------------------|----------------------------|
-------x-----------x-----|--------x-----------x-------|
-------x--2--------x--2--|--------x--2-----0--x--(0)--|
----------------0--------|-----0----------------------|
--2----------2-----------|--2-----------2-------------|
Q
E E E E E E
E E E E E E E E
---------------------------|--------------------------|
---------------------------|--------------------------|
---------x-----------x-----|--------x-----------x-----|
--0g2----x--2-----2--x--2--|-----2--x--2-----0--x--0--|
----5----------5-----------|--5-----------5-----------|
---------------------------|--------------------------|
Q
E E E E E E
E E E E E E E E
Q
E E E E E E
-------------------------|--------------------------|-------------------------|
-------------------------|--------------------------|-------------------------|
--0----x--0--------x--0--|--------x--0--------x-----|-------x-----------x-----|
-------x--------0--x-----|-----0--x--------0--x--4--|-------x--4--------x--4--|
--0----------0-----------|--0-----------0-----------|----------------2--------|
-------------------------|--------------------------|--0----------0-----------|
E E E E E E E E
Q
E E E E E E
--------------------------|-------------------------|
--------------------------|-------------------------|
--------x-----------x-----|-------x-----------x-----|
--------x--4-----0--x--2--|-------x--2--------x--2--|
-----2--------------------|----------------0--------|
--0-----------0-----------|--2----------2-----------|
E E E E E E E
E
W
----------------------------|---------------------||
----------------------------|---------------------||
--------x-----------x-------|---------------------||
--------x--2-----0--x--(0)--|--0g2----------------||
-----0----------------------|----5----------------||
--2-----------2-------------|---------------------||

MY HEART WILL GO ON

Intro:
-------------------------------------------------------------/
-------------------------------------------------------------/
------------------0------------------------------0---0-2-0---/
---0-0-2--3-2-0--0---3-2-0--------0-0-2--3-2-0--0---2------0-/
-3--------------3----------3----3--------------3-------------/
----------------------------3--------------------------------/
Verse1:
---------------------0-1-0-------------------1-3-/
-1--1-1--1-0-1-1-0-1-3----3--1--1-1--1-0-1-3-1-0-/
-0--0-0--0-0-0-0-2-2-2-------0--0-0--0-0-0-0-2-0-/
-2--2-2--2-2-2-2-3-3-3-------2--2-2--2-2-2-2-3-0-/X2
-3--3-3--3-3-3-3-------------3--3-3--3-3-3-3-3-2-/
---------------------------------------------1-3-/
Chorus:
[ Tab from: http://www.guitaretab.com/s/sungha-jung/277223.html ]
---------------------3-1-0---0-1-----------------0-0-1-0--/
-------1-3--1--1-3-3-1-1-1-3-----1-3-1-0-1-0-0-1-0------3-/
-0-2-4------2--2-0-0-2-2-2-0-----2-2-2-0-0-0-2-2-0--------/
------------2--2-0-0-3-3-3-0-----2-2-2-0-0-0-3-3----------/
------------0--0-2-2-------2-----0-0-0--------------------/
----------------------------------------------------------/
Intro again:
-------------------------------------------------------------/
-------------------------------------------------------------/
------------------0------------------------------0---0-2-0---/
---0-0-2--3-2-0--0---3-2-0--------0-0-2--3-2-0--0---2------0-/
-3--------------3----------3----3--------------3-------------/
----------------------------3--------------------------------/
Verse2:
---------------------0-1-0-------------------1-3-/
-1--1-1--1-0-1-1-0-1-3----3--1--1-1--1-0-1-3-1-0-/
-0--0-0--0-0-0-0-2-2-2-------0--0-0--0-0-0-0-2-0-/
-2--2-2--2-2-2-2-3-3-3-------2--2-2--2-2-2-2-3-0-/X2
-3--3-3--3-3-3-3-------------3--3-3--3-3-3-3-3-2-/
---------------------------------------------1-3-/
Duration Legend
--------------W - whole
H - half
Q - quarter
E - 8th
S - 16th
T - 32nd
X - 64th
. - note dotted
|-n-| - n-tuplets
Tablature Legend
---------------L - tied note
x - dead note
g - grace note
(n) - ghost note
> - accentuded note
NH - natural harmonic
AH - artificial harmonic
TH - tapped harmonic

SH - semi harmonic
PH - pitch harmonic
h - hammer on
p - pull off
b - bend
br - bendRelease
pb - preBend
pbr - preBendRelease
brb - bendReleaseBend
\n/ - tremolo bar dip
\n - tremolo bar dive
-/n - tremolo bar Release up
/n\ - tremolo bar inverted dip
/n - tremolo bar return
-\n - tremolo bar Release down
S - shift slide
s - legato slide
/ - slide into from below or
out of upwards
\ - slide into from above or
out of downwards
~ - vibrato
W - wide vibrato

tr - trill
TP - tremolo picking
T - tapping
S - slap
P - pop
< - fade in
^ - brush up
v - brush down

Tablature Legend
---------------h - hammer on
p - pull off
x - dead string
~ - let the note ring
^ - pluck the strings
smoothly from top to bottom

Title: Right Here Waiting


Artist: Sungha Jung
Arranged by: Ulli Boegershausen
Tabbed by: Ryan R. Gonzales
Location: Rosario, Batangas - Philippines
Tuning: e B G D A E (Standard Tuning)
Intro:
e
B
G
D
A
E

^
^
^
^
^
^
||--------|--3~----|--------|--3~----|--8---7~--|--5~------|
||--------|--3~----|--------|--3~----|--5~------|--5---8~--|
||--2~----|--0~----|--2~----|--0~----|--5~------|--5~------|
||--2~----|--2~----|--2~----|--------|----------|----------|
||--------|--3~----|--3~----|--2~----|--8~------|--5~------|
||--1~----|--------|--1~----|--------|----------|----------|

--------------3--3--1-p-0----|----------------0--1--0--|
---------------------------3-|----------3--3-----------|
-----------0-----------------|-------0-----------------|
--------2--------------------|----0--------------------|
--0--3-----------------------|-2-----------------------|
-----------------------------|-------------------------|
-----------------0-|-------------------------|
--------1--1--3----|----3-----1--p--0--------|
-----------0-------|-------0-----------2--0--|
-----2-------------|-------------------------|
--0----------------|-------------------------|
-------------------|-1-----------3-----------|
-----------3--3--1-p-0----|----------------0--1--0-|
------------------------3-|----------3--3----------|
--------0-----------------|-------0----------------|
-----2--------------------|----0-------------------|
--3-----------------------|-2----------------------|
--------------------------|------------------------|
-------------0--0-h-1-|----0---------------------|
-------1--3-----------|----------3-----1-p-0--1--|
----------0-----------|-------0------------------|
----2-----------------|--------------------------|
-0--------------------|--------------------------|
----------------------|-1-----------3------------|
-------------------|-----------------|
-----------0--1----|----------0--1~--|
--------2----------|-------2---------|
-----2-------------|----2------------|
--0----------------|-0---------------|
-----------------0-|-----------------|
Verse:
-------------------------|----0--------0-----------|
-----------------1--3--3-|----------------3--1--3--|
--------0-----0----------|-------------------------|

-----2-------------------|-------0-----------------|
--3--------3-------------|-------------------------|
-------------------------|-1--------1--------------|
^
------------------------|-----------------------------|
-----1----------------0-|-1-----3--0------------------|
--------2~---------2----|-2--------0--------0-h-2--0--|
--0------------0~-------|----0-----------0------------|
------------0-----------|-----------------------------|
------------------------|-3-----------3---------------|
-------------------------|----0--------0-----------|
-----------------1--3--3-|----------------3--1--3--|
--------0-----0----------|-------------------------|
-----2-------------------|-------0-----------------|
--3--------3-------------|-------------------------|
-------------------------|-1--------1--------------|
^
------------------------|-------------------------|
-----1----------------0-|-1-----3--0--------1--1--|
--------2~---------2----|-2--------0-----------0--|
--0------------0~-------|----0-----------0--------|
------------0-----------|-------------------------|
------------------------|-3-----------3-----------|
Refrain:
|--------|
---------------------0--1-|-------0-----------------------|
--------------1-h-3-------|----------1-----3--------------|
--------0-----0-----------|-------------------------------|
-----2--------------------|----0--------------------0-----|
--0--------0--------------|----------------------2-----2--|
--------------------------|-1-----------0-----3-----------|
|---------|
---------------------0--1-|-------0------------------------|
--------1-----1-h-3-------|----------1-----1---------------|
--------0-----0-----------|-----------------------------0--|
-----2--------------------|----0---------------------0-----|
--0--------0--------------|-------------------0-h-2--------|
--------------------------|-3-----------1------------------|
Chorus:
------------3--3--1--0----|----------------0--1--0--|
------------1--1--1--1--3-|----------3--3-----------|
---------0----------------|-------0--0--0-----------|
------2-------------------|----0--------------------|
---3----------------------|-------------------------|
--------------------------|-3-----------------------|
-----------------0-|-------------------------|
--------1--1--3----|----3-----1--p--0--------|
-----------0-------|-------0-----------2--0--|
-----2-------------|-------------------------|
--0----------------|-------------------------|
-------------------|-1-----------3-----------|
------------3--3--1--0----|----------------0--1--0--|
------------1--1--1--1--3-|----------3--3-----------|
---------0----------------|-------0--0--0-----------|

------2-------------------|----0--------------------|
---3----------------------|-------------------------|
--------------------------|-3-----------------------|
--------------0--0-h-1-|----0---------------------|
--------1--3-----------|----------3-----1-p-0--1--|
-----------0-----------|-------0------------------|
-----2-----------------|--------------------------|
--0--------------------|--------------------------|
-----------------------|-1-----------3------------|
Interlude:
-------------------|-----------------|
-----------0--1----|----------0--1~--|
--------2----------|-------2---------|
-----2-------------|----2------------|
--0----------------|-0---------------|
-----------------0-|-----------------|
Verse:
-------------------------|----0--------0-----------|
-----------------1--3--3-|----------------3--1--3--|
--------0-----0----------|-------------------------|
-----2-------------------|-------0-----------------|
--3--------3-------------|-------------------------|
-------------------------|-1--------1--------------|
^
------------------------|-----------------------------|
-----1----------------0-|-1-----3--0------------------|
--------2~---------2----|-2--------0--------0-h-2--0--|
--0------------0~-------|----0-----------0------------|
------------0-----------|-----------------------------|
------------------------|-3-----------3---------------|
-------------------------|----0--------1-p-0--------|
-----------------1--3--3-|--------------------1--3--|
--------0-----0----------|--------------------------|
-----2-------------------|-------0------------------|
--3--------3-------------|--------------------------|
-------------------------|-1--------1---------------|
[ Tab from: http://www.guitaretab.com/s/sungha-jung/280588.html ]
^
------------------------|-------------------------|
-----1----------------0-|-1-----3--0--------1--1--|
--------2~---------2----|-2--------0-----------0--|
--0------------0~-------|----0-----------0--------|
------------0-----------|-------------------------|
------------------------|-3-----------3-----------|
Refrain:
|--------|
---------------------0--1-|-------0-----------------------|
--------------1-h-3-------|----------1-----3--------------|
--------0-----0-----------|-------------------------------|
-----2--------------------|----0--------------------0-----|
--0--------0--------------|----------------------2-----2--|
--------------------------|-1-----------0-----3-----------|
|---------|

---------------------0--1-|-------0------------------------|
--------1-----1-h-3-------|----------1-----1---------------|
--------0-----0-----------|-----------------------------0--|
-----2--------------------|----0---------------------0-----|
--0--------0--------------|-------------------0-h-2--------|
--------------------------|-1-----------0------------------|
Chorus:
------------3--3--1--0----|----------------0--1--0--|
------------1--1--1--1--3-|----------3--3-----------|
---------0----------------|-------0--0--0-----------|
------2-------------------|----0--------------------|
---3----------------------|-------------------------|
--------------------------|-3-----------------------|
-----------------0-|-------------------------|
--------1--1--3----|----3-----1--p--0--------|
-----------0-------|-------0-----------2--0--|
-----2-------------|-------------------------|
--0----------------|-------------------------|
-------------------|-1-----------3-----------|
------------3--3--1--0----|----------------0--1--0--|
------------1--1--1--1--3-|----------3--3-----------|
---------0----------------|-------0--0--0-----------|
------2-------------------|----0--------------------|
---3----------------------|-------------------------|
--------------------------|-3-----------------------|
--------------0--0-h-1-|----0---------------------|
--------1--3-----------|----------3-----1-p-0--1--|
-----------0-----------|-------0------------------|
-----2-----------------|--------------------------|
--0--------------------|--------------------------|
-----------------------|-1-----------3------------|
Bridge:
----------------|-0-----1--0--------------|
-----------1--3-|-0--------0--------------|
--------0-------|-0-----------------0--2--|
--3--3----------|-2--------------2--------|
--0--0----------|-3--3--------3-----------|
--1--1-----3----|-------------------------|
------------------------------|-------------------------|--------------|
------------------1--1-h-3--1-|-------------------------|-------1------|
-----------2---------2------2-|-------------------------|----2---------|
--------3---------------------|-------3-----------2-----|-0------------|
-----3------------------------|----3-----3-----3-----3--|----------0~--|
--1-----------1---------------|-1-----------0-----------|--------------|
-----------|-0-----1--0--------------|-------------------3--3-|-------------------------|
-----1-h-3-|-0--------0--------------|-------1--1-----------1-|-------------1-----0-----|
--0--0-----|-0-----------------0--2--|----------2-----0-----2-|-------0-----0-----0-----|
-----------|-2--------------2--------|----0-------------------|----0-----------2-----0--|
-----------|-3--3--------3-----------|------------------------|-------------------------|
-----3-----|-------------------------|-1-----------1----------|-3--------3--------------|

Interlude:
------------3--3--1--0----|----------------0--1--0--|
------------1--1--1--1--3-|----------3--3-----------|
---------0----------------|-------0--0--0-----------|
------2-------------------|----0--------------------|
---3----------------------|-------------------------|
--------------------------|-3-----------------------|
-----------------0-|-------------------------|
--------1--1--3----|----3-----1--p--0--------|
-----------0-------|-------0-----------2--0--|
-----2-------------|-------------------------|
--0----------------|-------------------------|
-------------------|-1-----------3-----------|
------------3--3--1--0----|----------------0--1--0--|
------------1--1--1--1--3-|----------3--3-----------|
---------0----------------|-------0--0--0-----------|
------2-------------------|----0--------------------|
---3----------------------|-------------------------|
--------------------------|-3-----------------------|
--------------0--0-h-1-|----0---------------------|
--------1--3-----------|----------3-----1-p-0--1--|
-----------0-----------|-------0------------------|
-----2-----------------|--------------------------|
--0--------------------|--------------------------|
-----------------------|-1-----------3------------|
Refrain:
|--------|
---------------------0--1-|-------0-----------------------|
--------------1-h-3-------|----------1-----3--------------|
--------0-----0-----------|-------------------------------|
-----2--------------------|----0--------------------0-----|
--0--------0--------------|----------------------2-----2--|
--------------------------|-1-----------0-----3-----------|
|---------|
---------------------0--1-|-------0------------------------|
--------1-----1-h-3-------|----------1-----1---------------|
--------0-----0-----------|-----------------------------0--|
-----2--------------------|----0---------------------0-----|
--0--------0--------------|-------------------0-h-2--------|
--------------------------|-3-----------1------------------|
Chorus:
------------3--3--1--0----|----------------0--1--0--|
------------1--1--1--1--3-|----------3--3-----------|
---------0----------------|-------0--0--0-----------|
------2-------------------|----0--------------------|
---3----------------------|-------------------------|
--------------------------|-3-----------------------|
-----------------0-|-------------------------|
--------1--1--3----|----3-----1--p--0--------|
-----------0-------|-------0-----------2--0--|
-----2-------------|-------------------------|
--0----------------|-------------------------|

-------------------|-1-----------3-----------|
------------3--3--1--0----|----------------0--1--0--|
------------1--1--1--1--3-|----------3--3-----------|
---------0----------------|-------0--0--0-----------|
------2-------------------|----0--------------------|
---3----------------------|-------------------------|
--------------------------|-3-----------------------|
--------------0--0-h-1-|----0---------------------|
--------1--3-----------|----------3-----1-p-0--1--|
-----------0-----------|-------0------------------|
-----2-----------------|--------------------------|
--0--------------------|--------------------------|
-----------------------|-1-----------3------------|
--------------0~--|
-----------1------|
--------0---------|
-----2------------|
--3---------------|
------------------|
Title: Silent Night (Christmas Carol)
e
B
G
D
G
D

||--------------|-------------|-------------|--------------|
||--0-----0-1---|-0-----------|-0-----0-1-3-|-0------------|
||------0-----2-|-----0-------|-----0-------|-----0--------|
||----0---------|---0---------|---0---------|---0----------|
||--0-----------|-0-----4-5-2-|-0-----------|-0------------|
||--------------|-------------|-------------|-------0-2-4--|

e
B
G
D
G
D

||--------------|-------------|-------------|--------------|
||--0-----0-1---|-0-----------|-0-----3-1---|--------------|
||------0-----2-|-----0-------|-----0-----2-|-0---0--------|
||----0---------|---0-------0-|---0---------|---0----------|
||--0-----------|-0-----4-5---|-0-----------|-0------------|
||--------------|-------------|-------------|-------0-2-4--|

e
B
G
D
G
D

|-------------|
|---------|
||--------0-----------------------|-------0--------------------|
||--3-------3---0-----------------|-3-------3---0--------------|
||------0-------------------0-h-2-|-----0-------------------0~-|
||----0-------0---0-h-2-h-4-------|---0-------0---0-h-2-h-4----|
||--0-----------0-----------------|-0-----------0--------------|
||--------------------------------|----------------------------|

e
B
G
D
G
D

|-------------|
|---------|
||--5~~-----5---2-----------------|-3-------3------------------|
||--3~~-3-------------------------|---------0---3--------------|
||--5~~-5-----0-------------0-h-2-|-----0---------0------------|
||----4---4-------0-h-2-h-4-------|---0---0---0-----0----------|
||--------------------------------|-0-----------0-----4-2-h-4--|
||--0-----------0-----------------|----------------------------|

e
B
G
D
G
D

|-------------|
||----------------------0---|-------0------------------------|
||--5-------5---8---7-------|-3-------3---0------------------|
||------5---5-------------0-|-----0--------------------------|
||----5---5---5---5---5-----|---0-------0---0-h-2-h-4-5-s-7--|
||--5-----------5-----------|-0-----------0------------------|
||--------------------------|--------------------------------|

|---------|
e ||------------------------0---|-------0--------------------|

B
G
D
G
D

||--5-------5---8----7--------|-3-------3---0--------------|
||------5---5------5----5---0-|-----0-------------------0~-|
||----5---5---5---5----5------|---0-------0---0-h-2-h-4----|
||--5-----------5-------------|-0-----------0--------------|
||----------------------------|----------------------------|

e
B
G
D
G
D

|-------------|
|---------|
||--5~~-----5-s-7---8---5---2v---|-3-----------------7v--------------|
||--3~~-3----------------------0-|----------------------0------------|
||--5~~-5---------0---0---0------|-----------------------------------|
||----4---4----------------------|---0-h-2-h-4-5-s-7-----------------|
||-------------------------------|-0-----------------0----4----------|
||--0---------------4---7---0----|--------------------------7-5-h-7--|

e
B
G
D
G
D

|-----------------|
||--3----------|------------|-------------------------|
||------3------|-3~~-1v-----|-------------------------|
||----0-----4v-|-5~~------2-|-0-----------0-h-2-s-4v~-|
||--------0----|---0----0---|---0-h-2-h-4-------------|
||--0----------|------------|-0-------------------0~~-|
||-------------|-0----------|-------------------------|

e
B
G
D
G
D

|-------------|
|---------|
||--------0-----------------------|-------0--------------------|
||--3-------3---0-----------------|-3-------3---0--------------|
||------0-------------------0-h-2-|-----0-------------------0~-|
||----0-------0---0-h-2-h-4-------|---0-------0---0-h-2-h-4----|
||--0-----------0-----------------|-0-----------0--------------|
||--------------------------------|----------------------------|

e
B
G
D
G
D

|-------------|
|---------|
||--5~~-----5---2-----------------|-3-------3------------------|
||--3~~-3-------------------------|---------0---3--------------|
||--5~~-5-----0-------------0-h-2-|-----0---------0------------|
||----4---4-------0-h-2-h-4-------|---0---0---0-----0----------|
||--------------------------------|-0-----------0-----4-2-h-4--|
||--0-----------0-----------------|----------------------------|
Tab from: http://www.guitaretab.com/s/sungha-jung/262895.html ]
|-------------|
||----------------------0---|-------0------------------------|
||--5-------5---8---7-------|-3-------3---0------------------|
||------5---5-------------0-|-----0--------------------------|
||----5---5---5---5---5-----|---0-------0---0-h-2-h-4-5-s-7--|
||--5-----------5-----------|-0-----------0------------------|
||--------------------------|--------------------------------|

e
B
G
D
G
D

|---------|
||------------------------0---|-------0--------------------|
||--5-------5---8----7--------|-3-------3---0--------------|
||------5---5------5----5---0-|-----0-------------------0~-|
||----5---5---5---5----5------|---0-------0---0-h-2-h-4----|
||--5-----------5-------------|-0-----------0--------------|
||----------------------------|----------------------------|

e
B
G
D
G
D

|-------------|
|---------|
||--5~~-----5-s-7---8---5---2v---|-3-----------------7v--------------|
||--3~~-3----------------------0-|----------------------0------------|
||--5~~-5---------0---0---0------|-----------------------------------|
||----4---4----------------------|---0-h-2-h-4-5-s-7-----------------|
||-------------------------------|-0-----------------0----4----------|
||--0---------------4---7---0----|--------------------------7-5-h-7--|

e
B
G
D
G
D

|-----------------|
||--3----------|------------|-------------------------|
||------3------|-3~~-1v-----|-------------------------|
||----0-----4v-|-5~~------2-|-0-----------0-h-2-s-4v~-|
||--------0----|---0----0---|---0-h-2-h-4-------------|
||--0----------|------------|-0-------------------0~~-|
||-------------|-0----------|-------------------------|

e
B
G
D
G
D
[

e
B
G
D
G
D

||--------------|-------------|-------------|--------------|
||--0-----0-1---|-0-----------|-0-----0-1-3-|-0------------|
||------0-----2-|-----0-------|-----0-------|-----0--------|
||----0---------|---0---------|---0---------|---0----------|
||--0-----------|-0-----4-5-2-|-0-----------|-0------------|
||--------------|-------------|-------------|-------0-2-4--|

e
B
G
D
G
D

||--------------|-------------|-------------|--------------|
||--0-----0-1---|-0-----------|-0-----3-1---|--------------|
||------0-----2-|-----0-------|-----0-----2-|-0------------|
||----0---------|---0-------0-|---0---------|--------------|
||--0-----------|-0-----4-5---|-0-----------|-0---0--------|
||--------------|-------------|-------------|-------2-2-4--|

e
B
G
D
G
D

|-------------|
|---------|
||--------0-----------------------|-------0--------------------|
||--3-------3---0-----------------|-3-------3---0--------------|
||------0-------------------0-h-2-|-----0-------------------0~-|
||----0-------0---0-h-2-h-4-------|---0-------0---0-h-2-h-4----|
||--0-----------0-----------------|-0-----------0--------------|
||--------------------------------|----------------------------|

e
B
G
D
G
D

|-------------|
|---------|
||--5~~-----5---2-----------------|-3-------3------------------|
||--3~~-3-------------------------|---------0---3--------------|
||--5~~-5-----0-------------0-h-2-|-----0---------0------------|
||----4---4-------0-h-2-h-4-------|---0---0---0-----0----------|
||--------------------------------|-0-----------0-----4-2-h-4--|
||--0-----------0-----------------|----------------------------|

e
B
G
D
G
D

|-------------|
||----------------------0---|-------0------------------------|
||--5-------5---8---7-------|-3-------3---0------------------|
||------5---5-------------0-|-----0--------------------------|
||----5---5---5---5---5-----|---0-------0---0-h-2-h-4-5-s-7--|
||--5-----------5-----------|-0-----------0------------------|
||--------------------------|--------------------------------|

e
B
G
D
G
D

|---------|
||------------------------0---|-------0--------------------|
||--5-------5---8----7--------|-3-------3---0--------------|
||------5---5------5----5---0-|-----0-------------------0~-|
||----5---5---5---5----5------|---0-------0---0-h-2-h-4----|
||--5-----------5-------------|-0-----------0--------------|
||----------------------------|----------------------------|

e
B
G
D
G
D

|-------------|
|---------|
||--5~~-----5-s-7---8---5---2v---|-3-----------------7v--------------|
||--3~~-3----------------------0-|----------------------0------------|
||--5~~-5---------0---0---0------|-----------------------------------|
||----4---4----------------------|---0-h-2-h-4-5-s-7-----------------|
||-------------------------------|-0-----------------0----4----------|
||--0---------------4---7---0----|--------------------------7-5-h-7--|

e
B
G
D
G
D

|-----------------|
||--3----------|------------|-------------------------|
||------3------|-3~~-1v-----|-------------------------|
||----0-----4v-|-5~~------2-|-0-----------0-h-2-s-4v~-|
||--------0----|---0----0---|---0-h-2-h-4-------------|
||--0----------|------------|-0-------------------0~~-|
||-------------|-0----------|-------------------------|