You are on page 1of 10

Pretty Maids - Please Dont Leave Me tab

SELECT INSTRUMENT
TEMPO

Tuning: Std
Tempo 120

Pretty Maids - Please Don't Leave Me


Tabbed by MadsKlinze @ Visit my YouTube channel!

(The song is: Intro, brigde, verse x2, chorus, verse, chorus, bridge (incl. intro)
solo and some chorus
Distorted guitar (intro)
Q
Q
Q
Q
H.
E
S
S
E||------------------------|-------------------------------|
B||------------------------|-------------------------------|
G||-------------9----11----|--11b-------------Lpb---Lpbr-9-|
D||-------11---------------|-------------------------------|
A||------------------------|-------------------------------|
E||------------------------|-------------------------------|
|---3--|
H
E S
S S E E
H.
E
E
-------------------------------|-------------------------|
-------------------------------|-------------------------|
--11--------11--9h-11p-9-8--9--|--11------------11---Lb--|
-------------------------------|-------------------------|
-------------------------------|-------------------------|
-------------------------------|-------------------------|
Q
H
E E
H.
E E
Q
E
S S Q
Q
------------------------|----------------------|---------------------------|
------------------------|----------------------|---------------------------|

--11----9------------8--|--9------------9--9b--|--9----8h--9p-8------------|
-----------------11-----|----------------------|----------------11----9----|
------------------------|----------------------|---------------------------|
------------------------|----------------------|---------------------------|
W
Q
Q
Q
Q
H.
E
E
--------------------|--------------------------|------------------------|
--------------------|--------------------------|-----------------9--10--|
--------------------|---------------9----11----|--11b-------------------|
--11----------------|---L\----11---------------|------------------------|
--------------------|--------------------------|------------------------|
--------------------|--------------------------|------------------------|
|---3--|
H
E S
S S E E
H.
E
E
-------------------------------|-------------------------|
-------------------------------|-------------------------|
--11---------L--9h-11p-9-8--9--|--11------------11---Lb--|
-------------------------------|-------------------------|
-------------------------------|-------------------------|
-------------------------------|-------------------------|
Q
H
E E
H.
E E
Q
E
S S Q
Q
------------------------|----------------------|---------------------------|
------------------------|----------------------|---------------------------|
--11----9------------8--|--9------------9--9b--|--9----8h--9p-8------------|
-----------------11-----|----------------------|----------------11----9----|
------------------------|----------------------|---------------------------|
------------------------|----------------------|---------------------------|
W
H.
Q
--------------------|-----------------------||
--------------------|-----------------------||
--------------------|-----------------------||

--11----------------|---L-------------L\----||
--------------------|-----------------------||
--------------------|-----------------------||
Clean after distorted guitar:
E E E E E E E E
E E E E E E E E
E||---------------------------|---------------------------||
B||---5--------5--------5-----|--4--------4--------4------||
G||*-----6--------6--------6--|-----4--------4--------4--*||
D||*--------6--------6--------|--------4--------4--------*||
A||---------------------------|---------------------------||
E||---------------------------|---------------------------||
Verse:
E E E E E E E E
E E E E E E E E
E||-----------------0--------|-----------------2--------|
B||-----------2-----------2--|-----------4--------4-----|
G||--------4-----------4-----|--------4--------------4--|
D||-----2--------------------|-----4--------------------|
A||--0-----------0-----------|--2-----------2-----------|
E||--------------------------|--------------------------|
E E E E E E E E
E E E E E E E E
--------------4--------4--|-----------------4--------|
--------4--------4--------|-----------5--------------|
-----------4--------4-----|--------6-----------4-----|
--------------------------|-----6-----------------6--|
-----6--------------------|--4-----------4-----------|
--4-----------------------|--------------------------|
E E E E E E E E
E E E E E E E E
-----------------2--------|-----------------2--------|
--------------------2-----|--------------------4-----|
--------2-----2--------2--|-----------4-----------4--|

-----------4--------------|--------4-----------------|
-----4--------------------|--2--4--------2-----------|
--2-----------------------|--------------------------|
E E E E E E
E E
E E E E E E
E E
-----------4-----5p--4-----|-----------4-----5p--4-----||
--------5---------------5--|--------5---------------5--||
-----4--------4------------|-----4--------4------------||
---------------------------|---------------------------||
---------------------------|---------------------------||
--0------------------------|--0------------------------|| x2
Chorus:
E E E E E E E E
E E E E E E E E
E||-----------------2--------|-----------------2--------|
B||-----2-----2--------2-----|-----2-----4--------2-----|
G||--------2-----2--------2--|--------4--------------4--|
D||--------------------------|--------------4-----------|
A||--------------------------|--2-----------------------|
E||--2-----------------------|--------------------------|
E E E E E E
E E
E E E E E E
E E
-----------4-----5p--4-----|-----------4-----5p--4-----|
--------5---------------5--|--------5---------------5--|
-----4--------4------------|-----4--------4------------|
---------------------------|---------------------------|
---------------------------|---------------------------|
--0------------------------|--0------------------------|
E E E E E
E E E
E E E E E E E E
--------------4p--2--------|-----------------2--------|
-----2-----2---------2-----|-----2-----4--------2-----|
--------2---------------2--|--------4--------------4--|
---------------------------|--------------4-----------|

---------------------------|--2-----------------------|
--2------------------------|--------------------------|
E E E E E E E E
E E E E E E E E
-----4-----------4--------|-----4-----------4--------||
-----------5--------4-----|-----------5--------4-----||
--------6-----6--------6--|--------6-----6--------6--||
--------------------------|--------------------------||
--4-----------------------|--4-----------------------||
--------------------------|--------------------------|| x 2
Solo distorted guitar:
[ Tab from: http://www.guitaretab.com/p/pretty-maids/217555.html ]
W
Q
Q
Q
Q
E||-------------------|-------------12----14----|
B||-------------------|-------12----------------|
G||-------------------|-------------------------|
D||-------------------|-------------------------|
A||-------------------|-------------------------|
E||-------------------|-------------------------|
H
Q
E
S
S
E
E
Q
Q
Q
--14b--------14b-----Lpb--14pbr-12-|--14---Ls--19-----L\---------|
-----------------------------------|-----------------------------|
-----------------------------------|-----------------------------|
-----------------------------------|-----------------------------|
-----------------------------------|-----------------------------|
-----------------------------------|-----------------------------|
|---3---|
Q
S
S
S S S S
S S S S S S S
-------------------------------------------------|
-------16h-17p-16----16--------------------------|
------------------18----18p-16----16-------------|
-------------------------------18----18-17-16-14-|

-------------------------------------------------|
-------------------------------------------------|
W
S
S S S E
E
H
---------------------------------|
---------------------------------|
---------------------------------|
--16p-14-------16--14---L--------|
---------16-16-------------------|
---------------------------------|
E
S S S S S
S S S S S S S S S
------------------------------------------------|
------------------------------------------------|
------------------------------------------------|
--------13-14----13s-14-16----14-16-18-14-16-18-|
-----16-------16-----------18-------------------|
------------------------------------------------|
S S S S S S S S S S S S S S S S
--------------------------------------------------|
--------------------------------------------------|
--14-------14-16----14-16-18-14-16-18-20-16-18-20-|
-----16-18-------18-------------------------------|
--------------------------------------------------|
--------------------------------------------------|
|---3---| |-----3-----|
E
S S E
S
S
S Q
Q
Q
Q
S E.
H
---------------------------------------------|----------------------------|
--19--17-17--L--16h-19p-16-------------------|----------------------------|
---------------------------18----16----18----|--18b----18-18----L\--------|
---------------------------------------------|----------------------------|

---------------------------------------------|----------------------------|
---------------------------------------------|----------------------------|

|---6---| |---6---| |---6---| |---6---| |---6---| |---6---| |---6---|


S
S
S S
S
S S
S
S S
S
S S
S
S S
S
S S
S
S
---------------------------------------------------------------------------------|
--21p-19p-17-21p-19p-17-19p-17p-16-19p-17p-16-17p-16p-14-17p-16p-14-16p-14p-12-1-|
---------------------------------------------------------------------------------|
---------------------------------------------------------------------------------|
---------------------------------------------------------------------------------|
---------------------------------------------------------------------------------|
|---6---| |---6---| |------7------| 7 7 ------3
3
S
S
S S
S
S S
S S S
S S S Q
Q
Q
------------------------------------------------------------------|
--14p-12p-10-14p-12p-10-12p-10p-9-12p-10p-9-----------------------|
--------------------------------------------11p-9p----8-----------|
-----------------------------------------------------------/11----|
------------------------------------------------------------------|
------------------------------------------------------------------|
H
E
E E
E
H.
Q
---------------------------|-----------------------|
---------------------------|-----------------------|
---------------------------|--11------------11b----|
--9~----------------9------|-----------------------|
---------------/11-----11--|-----------------------|
---------------------------|-----------------------|
|-----3-----|
|------3-----|
|-----3----|
H
Q
Q
Q
Q
Q
Q
Q
Q
Q
-----------------------------|------------------------------------|
-----------------------------|------------------------------------|

--9~--------L----8----8g9----|--8---------------------------------|
-----------------------------|-------9----9g11----9---------------|
-----------------------------|-------------------------9----11----|
-----------------------------|------------------------------------|
W
H
H
H
E
E Q
----------------------|-----------------------|-----------------------------|
----------------------|-----------------------|--9b--------Lpbr--9--9pbr----|
----------------------|-----------------------|-----------------------------|
--9g11----------------|---L---------L\--------|-----------------------------|
----------------------|-----------------------|-----------------------------|
----------------------|-----------------------|-----------------------------|
H
E
E
Q
H
E
E
E E
-----------------------------|----------------------------|
--------------------10pbr----|-----------------10p--9-----|
--11---------L--11-----------|--11b---------L----------9--|
-----------------------------|----------------------------|
-----------------------------|----------------------------|
-----------------------------|----------------------------|
H
E E
S S
S
S
H.
E
S S
-----------------------------------|--------------------------|
-----------------------------------|--------------------------|
-----------------9--11--Lb--Lpbr-9-|--11------------9h--11p-9-|
--11~---------L--------------------|--------------------------|
-----------------------------------|--------------------------|
-----------------------------------|--------------------------|
H
Q
Q
H
E
E
E E
W
------------------------|-------------------------|--------------------||
-----------12-----Ls----|--9--------L--10p--9-----|--------------------||
--8---------------------|----------------------9--|--------------------||
------------------------|-------------------------|--11----------------||

------------------------|-------------------------|--------------------||
------------------------|-------------------------|--------------------||
Duration Legend
--------------W - whole
H - half
Q - quarter
E - 8th
S - 16th
T - 32nd
X - 64th
. - note dotted
|-n-| - n-tuplets
Tablature Legend
---------------L - tied note
x - dead note
g - grace note
(n) - ghost note
> - accentuded note
NH - natural harmonic
AH - artificial harmonic
TH - tapped harmonic
SH - semi harmonic
PH - pitch harmonic
h - hammer on
p - pull off
b - bend
br - bendRelease
pb - preBend
pbr - preBendRelease
brb - bendReleaseBend
\n/ - tremolo bar dip
\n - tremolo bar dive
-/n - tremolo bar Release up

/n\ - tremolo bar inverted dip


/n - tremolo bar return
-\n - tremolo bar Release down
S - shift slide
s - legato slide
/ - slide into from below or out of upwards
\ - slide into from above or out of downwards
~ - vibrato
W - wide vibrato
tr - trill
TP - tremolo picking
T - tapping
S - slap
P - pop
< - fade in
^ - brush up
v - brush down