You are on page 1of 3

Detrs de ti (1979)

(Gustavo Prncipe)
Intro:
|-------------2-----------------|
|----------0-----0-----0--------|
|-------3-----------3-----3-----|
|----4--------------------------|
|-------------------------------|
|-------------------------------|

X 3

|---------------2-0-------------------------2--0------|-------------0------3-------------2--0--3------------|----------0---------------------0--------------------|---4-3-2----------------------2----------------------|---------------------------0-------------------------|------------------------------------------------------

|-------------------------------------------------------0---0----|-----------7--5------------------3--2----------------1---1---1--|--------6-------7-------------2--------4-----------4------------|-----7---------------------4--------------------2---------------|--5------------------5-4-2-------------------0------------------|-----------------------------------------------------------------

|------------5-----------7-----------------------------5---------|---4-5--7-8----7-----8-----10--8----8--11-10-8----7-------8-7---|---------------------7--------------7-------------6-------------|---------------------9--------------9-------------7-------------|---------------------7--------------7-------------5-------------|----------------------------------------------------------------|------------10--7-----------------3-2-0----2-0-----2-----7------2--7-----|---7--------------10--8--7-----5--------5------0---2-----7------2--7-----|---6---------------------------4--------4----------2-----7------2--7-----|---7---------------------------5--------5----------4-----9------4--9-----|---5---------------------------4--------4----------2-----7------2--7-----|-------------------------------------------------------------------------|--7----------------2-----------------------2----------------|
|--7-------------0-----0-----0------------0---0----0---------|
|--7----------3-----------3-----3-------3-------3-----3------|
|--9--------4-------------------------4----------------------|
|--7---7-8---------------------------------------------------|
|------------------------------------------------------------|

Bm7
F#m7
Gmaj7
Detrs de ti hay algo esperando
Em7
A7
Dmaj7
Puede atrapar tu amor y no dejar
Bm7
C#m7b5
Que llegue a m, que d sus frutos
F#7+5
Bm7 - E7/9sus
Que sea nuestro gran amor.
Bm7
F#m7
Gmaj7
Si en el sendero, te veo, yo quiero
Em7
A7
Dmaj7
Besarte con mis ojos y con el viento
Bm7
Del mar peinar tu pelo
Am7
Para amar

D7b9
Gmaj7
solo es preciso dar.

Bm7
B
Bm7
Tienes que desenredar
Bm7
Em7
A tu corazn del mal de este mundo
A7
Dmaj7
Y entonces me amars (tienes)

Bm7
B
Bm7
No pienses que esto es mentira
Bm7
Em7
Decirte poesas, que me importa
A7
Dmaj7
Esta vida es corta y no nos va a esperar

Bm7
B
Bm7
Tienes que desenredar
Bm7
Em7
A tu corazn del mal de este mundo

A7
Dmaj7
Y entonces me amars

En la grabacin original del archivo 1, por efecto de la


cinta de casete, la guitarra no est afinada exactamente en
440hz.
AGADU