You are on page 1of 12

(thank you Jefferson Starship for such a beautiful song- emerald eyes-china perf

ume)
A
Precious love,
E
I'll give to you,
D
F#m
Bm ---- E
blue as the sky and deep in the eyes of a love so true.
A
Beautiful face,
E
you make me feel,
D
F#m
Bm ---- E
lite on the stairs and lost in the air of a love so real
chorus
E
And you
E
you can
E
you can
E
you can

A
D
E
can count on me girl
A
D
E
count on my love --- baby-A
D
E
count on me woman
A
D
E--HOLD E-------D hold
count on my love to see you through

verse
A
Emerald eyes and
E
china perfume
D
F#m
Bm ---- E
caught in the wheel and lost in the feel of a love so soon
A
Ruby lips
E
you make my song
D
F#m
Bm ---- E
into the night and saved by the lite of a love so strong
CHORUS:
E
And you
E
you can
E
you can
E
you can
n/c
you can
E
you can

A
D E
can count on me girl
A
D
E
count on my love --- babyA
D
E
count on me woman
A
D
E HOLD E--------D hold
count on my love to see you through ooooouuuu
A
D
E
count on me girl
A
D
E----------D hold then go into verse 1
count on my lo-ooo-ooo-ove

repeat verse one

Jane
Jefferson Starship
From the Album-"Freedom At Point Zero"
1979
Written by David Freiberg/Paul Kantner/Craig Chaquico
Tabbed by Ray Scheidler
Chords:
Em
G
D
A
D/F#
F#/A#
E----------2-----2-------------------------2-----|
B----------------3-----3-----3-------------2-----|
G----------------2-----3-----2------4------3-----|
D----2-----------------3------------2------------|
A----2-----3-------------------------------1-----|
E----------2-----------------2------4------------|
B
C#m F#m A#7
E----2-----4-----2-------------------------------|
B----------5-----2-----2-------------------------|
G----4-----6-----2-------------------------------|
D----4-----6-----4-----2-------------------------|
A----2-----4-----4-----1-------------------------|
E----------------2-------------------------------|
Intro:
E---------12--10--------10---------10--12--------|
B-----------------8---------8--------------------|
G--9--12-------------9---------9-----------------|
D------------------------------------------------|
A------------------------------------------------|
E------------------------------------------------|
E---------12--10--------10---------10--12--------|
B-----------------8---------8--------------------|
G--9--12-------------9---------9-----------------|
D------------------------------------------------|
A------------------------------------------------|
E------------------------------------------------|
E---------15--14---------14-----------14--15-----|
B-----12---------15--12------15--12--------------|
G--12--------------------------------------------|
D------------------------------------------------|
A------------------------------------------------|
E------------------------------------------------|
E---------15--14---------14-----------14--15-----|
B-----12---------15--12------15--12--------------|
G--12--------------------------------------------|
D------------------------------------------------|
A------------------------------------------------|
E------------------------------------------------|

B5 B5 D5
Em
G
D
A
E--3--3--3--7--7--7--7--7--7--5--5--5--5--5--5--5-|
B--5--5--5--8--8--8--8--8--8--7--7--7--5--5--5--5-|
G--4--4--4--7--7--7--7--7--7--7--7--7--6--6--6--6-|
D-------------------------------------------------|
A-------------------------------------------------|
E-------------------------------------------------|
Em G D D A A
D D A A

Em

Em
G
D
Jane you say it's all over
A
Em G D D
For you and me girl
A
A Em
G
D
There's a time for love and a time
D A A
Em
G D
A A
For letting it be baby
Em
D/F#
G
D/F# Em
Jane you're playing a game called
Em
D/F#
G
D/F# Em
Called hard to get by it's real name
Em
D/F#
G
Makin' believe that you just don't
E/G# A F#/A# B
Em
D D A A Em G D D AA
Feel the same
oh Jane
Em
G
D
Jane you're playing a game
A
Em G D D
You never can win girl
A A
Em
G
D
D
You're stayin' away so I'll ask you
A
A Em
G D D AA
Where you been baby
Em
D/F#
G D/F# Em
Like a cat and a mouse
Em
D/F#
G
D/F#
From door to door and house to house

Em
D/F#
G
Don't you pretend you don't know
E/G#
A F#/A# B
What I'm talking about
C#m
F#m
C#m
F#m
Were all those nights we spent together
C#m
F#m
C#m F#m
Only because you didn't know better
F#m
E/G#
Oh Jane you're playing a game
A
A#7 B B B B
You're playing a game playing a game
Em G D D A A Em
D D A A Em G D A A
Em
G
D
Oh Jane you're playing a game
D

A A
Em G D
A A
Of hide and go seek
Em
G
D D
Jane you're playing for fun
A A
Em G D D AA
But I play for keeps
Em
G
D
A
Em
D D A A
Jane Jane Jane that's a game on me
Em
G
D
A
Em
D D A A
Jane Jane Jane that's so plain to see
Em
G
D D A A
Jane Jane Jane
(Repeat and fade)

Song: Jane
Artist: Jefferson Starship
Album: Freedom at Point Zero
Written by: David Freiberg, Paul Kantner, Craig Chaquico
Transcribed by: Elliot Matson
--------------12--10---------10--------10---12----------------------------------

-----------------------|
---------------------8---------8----------------------------------------------------------------------|
-9--12-----------------9---------9--------------------------------------------------------------------|
------------------------------------------------------------------------------------------------------|
------------------------------------------------------------------------------------------------------|
------------------------------------------------------------------------------------------------------|
Repeat
--------------15-14-----------14-------14---15--------------------------------------------------------|
------12-----------15-12--------15-12-----------------------------------------------------------------|
---12-------------------------------------------------------------------------------------------------|
------------------------------------------------------------------------------------------------------|
------------------------------------------------------------------------------------------------------|
------------------------------------------------------------------------------------------------------|
Repeat
Em
Em
G
D
A

A (Aggressively)

Top 3 Strings
Top 4 Strings
Middle 4 Strings
Middle 4 Strings

Find Your Way Back by Jefferson Starship


------------As tabbed by Eric Czerwinski (teamski1@hotmail.com)
Chords Used:
G: 320033
F: 133211
C: 032010 or 81010988
A: 002220
D: 000232
Acoustic Intro:
This repeats through about half of the song
G
E|---3-----3-----3------3--------3------3------3------3---------------|

B|-----3-----3-----3------3--------3------3------3------3-------------|
G|--------------------------0-----------------------------0-----------|
D|-------3-----2-----0---------------3------2-------0-----------------|
A|--------------------------------------------------------------------|
E|-3---------------------------3-----------------------------3--------|
..."Trying to get back to my heart..."
F C G F C
..."Find Your Way Back..."

Note that it runs into a G chord

E|---------------------------------------------------------------------|
B|---------------------------------------------------------------------|
G|---------------------------------------------------------------------|
D|---------------------------------------------------------------------|
A|-----------3-3-3----------------------------3-3-3-3-3-3--------------|
E|-1-1-1-1-1-------1-1-1-1-1-3-3-3-1-1-1-1-1------------3-3-3-1-1-1-1-1|
E|---------------------------------------------------------------------|
B|---------------------------------------------------------------------|
G|---------------------------------------------------------------------|
D|---------------------------------------------------------------------|
A|-3-3-3---------------------------------------------------------------|
E|-------1-1-1-1-1-3-3-3-G---------------------------------------------|
Then immediately into this bridge:
G
E|---3--------3-------3-----3---------3------3-------------------------|
B|-----3--------3---3---------3---------3--3---------------------------|
G|----------------0--------------------- 0-----------------------------|
D|---------------------------------------------------------------------|
A|-------3-----------------------3-------------------------------------|
E|-3-------3--------------3--------3-----------------------------------|
Back to Intro Acoustic, then:
..."First to find the heart..."
F C A.....G
..."Find your way back..." As above
..."through the heart..."
G F C G F C A G D A D A
Then run with the wind:
G F C F G F C Repeating to the end of the song

Find Your Way Back


Jefferson Starship
From the Album-"Modern Times"

1981
Written by Craig Chaquico
Tabbed by Ray Scheidler

Intro/Main Riff Throughout Song:


G
E-----3------1---0------------------------------|
B--------------------3---1---3------------------|
G--0-----0-----------------------0--------------|
D-----------------------------------------------|
A-----------------------------------------------|
E-----------------------------------------------|
E-----------------------------------------------|
B----------------0--------0---------------------|
G----0--------0--------0------------------------|
D----------3--------2--------0-------0----------|
A--------------------------------3--------------|
E--3----3---------------------------------3-----|
G + Main
You know it's been a long long road
G + Main
Since I packed up and left on my own
G + Main
And I carry a heavy load
G + Main
Just tryin' to get back to her heart
F
C
G
F
C
E----------------------------------------------|
B----------------------------------------------|
G-------5--------------5-----------------------|
D--3----5----5----3----5-----------------------|
A--3----3----5----3----3-----------------------|
E--1---------3----1----------------------------|
G + Main
E--7-7-7--8--10-------7-7-7--8--7-----10--8--7-|
B----------------8-----------------8-----------|
G----------------------------------------------|
D----------------------------------------------|
A----------------------------------------------|
E----------------------------------------------|
E--8--7-----------13---15---19---20---(15)-----|
B--------8---15--------------------------------|
G----------------------------------------------|
D----------------------------------------------|
A----------------------------------------------|
E----------------------------------------------|

G + Main
I sure ain't got no home
G + Main
I seem to find love where I ramble
G + Main
And when it's time to go
G + Main
I hear that voice again

sayin'

G
G/F
G/C
G/F
E--3----3----3---3-3-3-3---3-3-3--3-3-3-3-3----|
B----------------------------------------------|
G----------------------------------------------|
D----------------------------------------------|
A--------------------------3-3-3---------------|
E--3----3----3---1-1-1-1----------1-1-1-1-1----|
Find your way back
G
G/F
G/C
E--3----3----3---3----3--3---3--3-3-3--3-3-3-3-|
B----------------------------------------------|
G----------------------------------------------|
D----------------------------------------------|
A----------------------------3--3-3-3--3-3-3-3-|
E--3----3----3---1----1--1---------------------|
Find your way back to her heart
G
G/F
G/C
G/F
E--3----3----3---3-3-3-3---3-3-3--3-3-3-3-3----|
B----------------------------------------------|
G----------------------------------------------|
D----------------------------------------------|
A--------------------------3-3-3---------------|
E--3----3----3---1-1-1-1----------1-1-1-1-1----|
Find your way back
G
G/F
C
G
E--3----3---3----3----3--3---------------------|
B----------------------------------------------|
G----------------------------5-----------------|
D----------------------------5------5----------|
A----------------------------3------5----------|
E--3----3----3---1----1--1----------3----------|
Find your way back to her heart
E-----3--------------3-------------------------|
B--------3--1-----------3--1--0----------------|
G--0--------------0--------------0-------------|
D----------------------------------------------|
A----------------------------------------------|
E----------------------------------------------|
E-----3--------------3-------------------------|

B--------3--1-----------3--1--0----------------|
G--0--------------0--------------0-------------|
D----------------------------------------------|
A----------------------------------------------|
E----------------------------------------------|
(Intro/Main: Twice)
G + Main
Leave a message with the rain
G + Main
You can find me where the wind blows
G + Main
The snow across the plain
G + Main
And the frost upon the heart
F C A
E-----------------------------------------------|
B---------2-------------------------------------|
G-----5---2-------------------------------------|
D--3--5---2-------------------------------------|
A--3--3-----------------------------------------|
E--1--------------------------------------------|
You got no place to be
A
Still you wonder where love's goin'
G + Main
And why I had to leave
G + Main
I hear a voice it says to me
G
G/F
G/C
G/F
E--3----3----3---3-3-3-3---3-3-3--3-3-3-3-3----|
B----------------------------------------------|
G----------------------------------------------|
D----------------------------------------------|
A--------------------------3-3-3---------------|
E--3----3----3---1-1-1-1----------1-1-1-1-1----|
Find your way back
G
G/F
G/C
G F C
E--3----3---3----3----3--3---3-----------------|
B----------------------------------------------|
G----------------------------------------------|
D----------------------------------------------|
A----------------------------3-----------------|
E--3----3----3---1----1--1---------------------|
Find your way back to her heart

G F C
A G D A
A
To her heart
G
G/F
G/C
I know it's too late now
G/F
G
G/F
G/C
But I wish I could go back in time
G
G/F
G/C G/F
And start all over somehow
G
G/F
G/C
And get it right from the start
G
G/F G/C G/F
And find your way back
G
G/F
G/C
Find your way back to her heart
G
G/F G/C G/F
Find your way back
G
G/F
G/C G
G/C G/F
Find your way back to her heart
G
G/F
G/C G/F
Find your way back
G
G/F
G/C
Find your way back
(Repeat and Fade)

i will still love you


stonebolt
intro: Asus2-A-DM7 (2x)
Asus2
A
DM7
e|-0----------0-------2--------2-------|
B|-0--2----0--2-0h20--0-2------2-------|
G|-2----2-----2-------2---2----2-------|
D|-2----------2-------0-----<4>0-------|
A|-0-----------------------------------|
E|-------------------------------------|
verse 1:
A
DM7
Love 'em and leave 'em Give them the air
A
DM7
Hurt and deceive them Say you don't care
D
C#

Break their hearts and let them fall


F#m
B
Like rain on your back stairs
Bm
C#m
Then call me up tomorrow
D
E
You know I'll still be there
chorus 1:
A C#m
D
E
When the moon disappears forever
A C#m
D
E
And the sun shines electric blue
A
C#m
And the mountains and trees tumble into the sea
D
Dm
To rest there for eternity
F#m
C#m
No matter what you do
D
E
Asus2 (intro pattern)
I will still love you
verse 2:
A
DM7
So if all your bridges go up in flames
A
DM7
And if all your lovers strike you too tame
D
C#
Or some sad song of love you hear
F#m
B
Can make you call my name
Bm
C#m
I will be there in a minute
D
E
And you know I'll feel the same
chorus 2:
A C#m
D
E
When the moon disappears forever
A C#m
D
E
And the sun shines electric blue
A
C#m
And the mountains and trees tumble into the sea
D
Dm
To rest there for eternity
F#m
C#m
No matter what you do
D
E
A
I will still love you
bridge:
F#m
C#m
So the weary traveler
D
C#m
Tired of passing through
Bm
C#m
Stops to get his bearings
D
E
And stays on to wait for you

chorus 4:
A C#m
D
E
When the moon disappears forever
A C#m
D
E
And the sun shines electric blue
A
C#m
And the mountains and trees tumble into the sea
D
Dm
To rest there for eternity
F#m
C#m
No matter what you do
D
E
F#m
B7
I will still love you
Bm
E
Asus2 (intro pattern) - A
I will still love you
transcribed by kittpogi & doods