P. 1
Linoleum Solo Tab

Linoleum Solo Tab

|Views: 232|Likes:
Published by joelarn

More info:

Published by: joelarn on Jun 25, 2010
Copyright:Attribution Non-commercial

Availability:

Read on Scribd mobile: iPhone, iPad and Android.
download as DOCX, PDF, TXT or read online from Scribd
See more
See less

06/24/2010

pdf

text

original

Linoleum Solo (as done by Streetlight Manifesto

)

e|---------------------------------------------------9--7-5-4----|
B|---------------5/7-5-----------------5-7-5-7-7/9-7-10-9-7-5----|
G|-------------4-------------------4h6---------------------------|
D|---------4h6-----------------4h6-------------------------------|
A|-5/7-5/7-------------5/7-5/7-----------------------------------|
E|---------------------------------------------------------------|

e|-xxxx-555554----------------4-4h5p4-4-4--4---------4-4h5p4-4-5-|
B|-xxxx-777775----5----5----5----------7----7-5-----5-------7----|
G|-------------4h6--4h6--4h6---------------------4/6-------------|
D|---------------------------------------------------------------|
A|---------------------------------------------------------------|
E|---------------------------------------------------------------|

e--121212----12--12121212----------------------------------------|
B|-121212-10-12--12121212-10----------5--7h9p7\5-7-7/9-7-5-------|
G|----------------------------------4-4--------------------------|
D|-------------------------------4-6-----------------------------|
A|----------------------------5/7--------------------------------|
E|---------------------------------------------------------------|

e|-0--12+--20+-------------001201109070907050--------------------|
B|--0---12+---20+-9b10r9---------------------001201009070907050--|
G|----------------------9~---------------------------------------|
D|---------------------------------------------------------------|
A|---------------------------------------------------------------|
E|---------------------------------------------------------------|

e|-------00500700-xx-9-9-9-9--11111111-121212-1414---------------|
B|-500700---------xx-10101010-12121212-141414-1515---------------|
G|---------------------------------------------------------------|
D|---------------------------------------------------------------|
A|---------------------------------------------------------------|
E|---------------------------------------------------------------|

| / slide up
| \ slide down
| h hammer-on
| p pull-off
| ~ vibrato
| + harmonic
| x Mute note
| b Bend note up
| r Release bend


You're Reading a Free Preview

Download
scribd
/*********** DO NOT ALTER ANYTHING BELOW THIS LINE ! ************/ var s_code=s.t();if(s_code)document.write(s_code)//-->