You are on page 1of 31

Do dil mil rahe hain Chords

C......Am ............F.........C
Do dil mil rahe hai Magar Chhup Ke Chhup Ke
G............F.........G..............F........Am. .................C
Sab ko ho rahi hai Sab ko Ho rahi hai Khabar Chhup Ke Chhup ke

Continue with these chords

I dnt remember the lyrics of the para but here goes


C......................Am......F.................C .......
Kahi aag lagne se pehle Uthta hai aisa dhuaan
C.....................Am...............
Jaisa hai idhar ka nazaara hoo
F......................C.....
waisa hi udhar ka samaa

G.......F..........Am..........C
kya hai kuch bhi nahi hai agar
G........F.........Am.............C
hothon pe hai khaamoshi magar
C...............Am.......C.........Am........
baatein kar rahi hai baatein kar rahi hai
F.......C...................
nazar chhup ke chhup ke
G.............F.......
Sabko ho rahi hai
G.............F......
Sabko ho rahi hai
Am.............C....
Khabar Chhup Ke Ke

**** MERE SAPNO KI RANI ****

Am G Am
Mere sapanon ki rani kab aayagee tu....

Am G F
Aye ruth mastani kab aayagee tu...

Am G C
Bita jayaee zindagani kab ayegi tu..

G Am
chali aa... tu chali aa.....

Same progression throughout....

1
**** AAJ UNSE PEHLI MULAKAT HOGI ****

GDG
aaj unase pahalii mulaaqaat hogii,
DG
phir aamane saamane baat hogi
GCDG
phir hogaa kya, kya pataa kya khabar

GD
anadekhaa anjaanaa mukha.Daa kaisaa hogaa
G
na jane vo chaand ka Tukdaa kaisaa hogaa
CDG
milate hii unase haay dil mein,
CDG
ek beqaraarii si din raat hogii
GC
phir hogaa kya ...

GD
baiThe.n ho.nge raaste pe vo aa.Nkhe.n bichhaaye
G
har aahaT pe sochate ho.nge, saajan aaye
CDG
kyA haal hogaa, vahaa.n kuchh nA puuchho
CDG
dil me.n uma.ngo.n ki baraat hogii
GC
phir hogaa kyA ...

GD
khulake ho.ngI tanhaaii me.n dil kii baate.n
G
pyaase tanaman pe ho.ngI rim\-jhim barasaate.n
CDG
ai mere dil ye bhI to soch le tU
CDG
koI sahelii agar saath hogii
GC
phir hogaa kyA ...

2
**** DOOBA DOOBA ****

GCD
Dooba dooba rehta hoon aankhon me teri

GCD
Deewana ban gaya hoon main chaahat me teri

Am Bm
Ab din guzarte nahin

Am Bm
Ratein kat-ti nahin

Am Bm Am Bm G
Teri tasvir se baat ban-ti nahin... Aa-ja

G, C, Am, G

G
Koi jaane na
Pehchaane na

Am D
Yeh hua kaise

CD
Tum aagaye kwabon mein aise

Am Bm Am Bm
Bewafa... sun oh bewafa... na jaa

Dooba dooba rehta hoon aankhon me teri

Tum jo mil gaye


Deeye jal gaye
Mere khwabon mein
Ban jao tum mere hamsafar
Bewafa ... sun oh bewafa ... bewafa... na jaa

Dooba dooba rehta hoon aankhon me teri


Deewana ban gaya hoon main chaahat me teri

Ab din guzarte nahin


Raaten kat-ti nahin
Teri tasvir se bat banti nahin... oh aa-ja
Na ja bewafa
Oh bewafa... sun oh bewafa... na jaa

3
**** ROOP TERA MASTANA ****

C7 C 6x

[Mukhda]

C7 C Bb Bb
Ruup teraa mastaanaa, pyaar meraa diivaanaa

Gm
Bhuul koii hamase naa ho jaaye

[Interlude 1]

Am 14x

[Antaraa 1]

C7 Bb Gm F
(Raat nashiilii mast samaa hai

Gm Bb Bb C
Aaj nashe men saaraa jahaan hain) - (2)

C
Aaye sharaabii mausam bahakaaye - e - e - e ...
Ruup teraa mastaanaa, pyaar meraa diivaanaa
Bhuul koii hamase naa ho jaaye

[Interlude 2]

C 3x Am 5x

Bb C

[Antaraa 2]

(Aankhon se aankhen milatii hain jaise


Bechain hoke tuufaan men jaise) - (2)
Mauj koii saahil se takaraaye - e - e - e ...
Ruup teraa mastaanaa, pyaar meraa diivaanaa
Bhuul koii hamase naa ho jaaye

[Antaraa 3]

(Rok rahaa hai hamako zamaanaa


Duur hii rahanaa paas naa aanaa) - (2)
Kaise magar koii dil ko samajhaaye - e - e - e ...
Ruup teraa mastaanaa, pyaar meraa diivaanaa
Bhuul koii hamase naa ho jaaye

4
**** RAAT KALI EK KHAWAB MEIN AAYE ****
EAED
Raat kali ek khwaab mein ayeee

E aur gale kaa haar hui

B subaho ko jaab hum neend se jaage

E aankh tumhi se chaar huii

Anthara 1

EAE
chaahe kaho ise meri muhabbat

A
chahe hasin mein uda do

EAE
yeh kya hua mujhe, mujhako khabar nahi

BE
ho sake tumhi bataa do

EA
tumne kadam to rakhaa jameen par

BE
seenen mein kyon jhankaar hui

Anthara 2

EAE
Yu to hasinon ke

EAE
mahajabeenon ke

A
hote hai roz nazare

EAE
par unhe dekha ke, dekha hai jab tumhe,

EBE
tum lage aur bhi pyare

EAB
bahon mein le lu, aisi tamanna

E
ek nahin kai baar hui.
raat kali........

5
**** DO DIL MIL RAHE HEIN ****
A# Gm A#
do dil mil rahe hai, magar chupake chupake
A# D# A#
sab ko ho rahee hai, khabar chupake chupake

A# D# A#
saason men badee bekaraaree, aankhon men kaee rat jage

A# D# A#
kabhee kahee lag jaaye dil to, kahee fir dil naa lage

D# D#
apanaa dil main jaraa thaam loo, jaadoo kaa main ise naam doo

A# Gm A#
jaadoo kar rahaa hai, asar chupake chupake

A# Gm A#
do dil mil rahe hai, magar chupake chupake

ayese bhole banakar hain baithhe, jaise koee baat nahee


sabakuchh najar aa rahaa hai, din hain ye raat nahee
kyaa hain kuchh bhee naheen hain agar, hothhon pe hain khaamoshee magar
baate kar rahee hai, najar chupake chupake

do dil mil rahe hai, magar chupake chupake


kahee aag lagane se pahale, uthhataa hain ayesaa dhuwaan
jaisaa hain idhar kaa najaaraa, waisaa hee udhar kaa samaa
dil men kaisee kasak see jagee, dono jaane baraabar lagee
dekho to idhar se, udhar chupake chupake

do dil mil rahe hai, magar chupake chupake


sab ko ho rahee hai
sab ko ho rahee hai, khabar chupake chupake
do dil mil rahe hai, magar chupake chupake

6
**** JO BHI KASMEIN KHAAYI THI HUMNE ****

Am
Jo Bhi Kasmein Khaayi Thi Humne

F
Vaada Kiya Tha Jo Milke

Am F
Tune Hi Jeevan Mein Laaya Tha Mere Savera

Am F
Kya Tumhe Yaad Hai Kya Tumhe Yaad Hai

Am
Kya Tumhe Yaad Hai

Din Woh Bade Haseen The


Raatein Bhi Khush Naseeb Thi
Tune Hi Jeevan Mein Laaya Tha Mere Savera
Kya Tumhe Yaad Hai Kya Tumhe Yaad Hai
Kya Tumhe Yaad Hai

C Jaage Jaage Rehte The Khoye Khoye Rehte The

G Karte The Pyaar Ki Baatein Kabhi Tanhaayi Mein Kabhi Purvaayi Mein

Am Hoti Thi Roz Mulaakaatein

C Teri In Baahon Mein Teri Panahon Mein

G Maine Har Lamha Guzaara Tere Is Chehere Ko Chand Sunhere Ko

F Am Maine To Jigar Mein Utaara

Am F Kitne Tere Karib Tha Main To Tera Naseeb Tha

Am F Hoton Pe Rehta Tha Har Waqt Bas Naam Tera

Am F Kya Tumhe Yaad Hai Kya Tumhe Yaad Hai

Am Kya Tumhe Yaad Hai

7
**** JAB KOI BAAT BIGAR JAYE ****

G Bm EM
ruru ru ruru ru ruru ru

C
ruuru ru

Am F D
ruru ru ruru ru ruru ru

G
ruru ru

G Bm
jab koi baath bigad jaaye

Em C
jab koi muskil pad jaaye

Am D G
tum dena saath mera o hamnawas

G Bm
na koi hai na koi tha

Em C
zindagi mein tumhare siwa

Am D G
tum dena saath mera o hamnawas

G Bm
ho chandni jab tak raat

Em C
tum dena mera saath

Am D G
tum magar andero main na chodna mera haath

8
**** KAHIN DOOR JAB DIN DHAL JAYE ****

Kahin Door Jab Din Dhal jaye


F

Saanjh ki dulhan badan churaye


Bb C

Chupke se aaye
F

Mere khayalon ke aangan mein


Gm F

Koi sapnon ke deep jalaye, deep jalaye


CGF

Kahin...

Kabhi to yeh dil kahin mil nahi pate


Bb

kabhi to yeh sapnon ke pichhe pichhe bhage


Gm C F

mere khayalon..

9
**** PYAAR DEWANA HOTA HAI ****

DCDCD
Pyar deewana hota hai mastana hota hai

DCDCD
Har khushi se har gum se begana hota hai

Antara:

D F#m Bm G
Shamma kahe parwane se pare chala ja

CDAD
Meri tarha jal jayega yahan nahi aa

DCDCD
Woh nahin sunta usko jaljana hota hai

DCDCD
Har khushi se har gum se begana hota hai

Rahe koi sau parde mein dare sharam se


Nazar chahe laakh churae koi sanam se
Aa hi jata hai jispe dil aana hota hai
Har khushi se har gum se begana hota hai

Suno kisi shayar ne ye kaha bahut khoob


Manaa kare duniya lekin mere mehboob
Woh chhalak jata hai jo paymana hota hai
Har khushi se har gum se begana hota hai

10
**** PAL [KK] ****

F Bb
Hum rahein ya na rahein kal
Gm F
kal yaad ayenge pal

F Bb
pal yeh hain pyaar ke pal
Gm F
chal aa mere sang chal

Dm F
chal ... sochein kya ...
Bb Gm F
chhoti si hai zindagi

Dm F
kal ... mil jayee
Bb Gm F
to hogi .. khushnaseebi

F Bb
Hum rahein ya na rahein kal
Gm F
pal yaad ayenge Yeh pal

11
**** PEHLA NASHA ****

F Bb
Chahe tum kuch na kaho

FFC
Maine Sun liya

FC
Ki saathi pyaar ka

Dm Bb C
Maine chun liya, maine chun liya, chun liya

[Interlude 1]
F Dm Bb C (2x)

F Dm C
Pehla nashaa, Pehla khumaar

FC
Nayaa pyaar hain nayaa intazaar

Bb F
KaraluuN main kyA apanA haal

Bb C
Ai dil-e-beqaraar

Bb F
Mere dil-e-beqaraar

C
tU hii bataa

[Interlude 2]
Dm C Dm C Bb

Udataa hii phiruuN in havaaon men kahiin


yA main jhuul jaauuN, in ghaTaaon men kahiin [2x]
ek karaluuN aasamaan aur zamiin
ab yaaro kyA karuuN kyA nahiin
Pehla nashaa, Pehla khumaar

[Interlude 3]
Bb Ab Bb Ab F

Usane baat kii, kuchh aise Dhang se


sapane de gayaa vo hazaaron rang ke [2x]
rah jaauuN jaise men haar ke
aur chuume vo mujhe pyaar se

12
**** PURANI JEANS [ALI HAIDER] ****

Intro C# Riff Chords C# F# G# F# G# C# X2

C# F# C# Purani Jeans Aur Guitar, Muhalle Ki Woh Chat Aur Mere Yaar

C# F# C# Woh Raton Ko Jaagna, Subah Ghar Jana Kood Ke Diwaar

F# Woh Cigarette Peena, Gali Mein Ja Ke

G# C# Woh Karna Danton Ko, Ghari Ghari Saaf

C# Pahunchna College Hamesha Late,

F# C# Woh Kehna Sir Ka Get Out From The Class

F# C# Woh Bahar Ja Ke Hamesha Kehna, Yahan Ka System Hee Hai Kharaab

F# Woh Ja Ke Canteen Mein, Table Baja Ke

G# C# Woh Gane Gana, Yaaron Ke Saath

C# Bus Yaaden Yaaden, Yaaden Reh Jati Hain

G# C# Kuch Choti Choti Baten Reh Jati Hain

Bus Yaaden Yaaden Yaaden Reh Jati Hain


Kuch Choti Choti Baten Reh Jati Hain
Bus Yaaden

Woh Papa Ka Daantna Woh Kehna Mummy Ka Chorea Ji Aap


Tumhen To Bus Nazar Aata He Jahan Main Beta Mera Hi Kharaab
Woh Dil Main Sochna Kar Ke Kuch Dekhaden
Woh Karna Planning Roz Nahin Yaar

Larakpan Ka Woh Pehla Pyar Woh Likhna Hathon Pe A + R


Woh Khirki Se Jankhna Woh Likhna Letter Tumhen Bar Bar
Woh Dena Tuhfe Main Sone Ki Baliyan
Woh Lena Doston Se Paise Udhar

Bus Yaaden Yaaden Yaaden Rehjati Hain


Kuch Choti Choti Baten Rehjati Hain
Bus Yaaden

Aisa Yaadon Ka Mosam Chala Bhoolta Hi Nahin Dil Mera


Kahan Meri Jeans Aur Guitar Muhalle Ki Woh Chath Aur Mere Yaar
Woh Raton Ko Jagna Subah Ghar Jana Kood Ke Diwar

Purani Jeans Aur Guitar Muhalle Ki Woh Chath Aur Mera Yaar
Woh Raton Ko Jagna Subah Ghar Jana Kood Ke Diwar Purani Jeans Aur Guitar ....

13
**** GAZAB KA DIN ****

G G-Gadd9
Guitar picking [4x]

[Mukhadaa]

GCGD
Gazab kaa hai din, socho zaraa
Ye divaanaapan, dekho zaraa

Em D Tum ho akele, hum bhi akele

CD Mazaa aa rahaa hai,

GCDDGCGG
Kasam se, Kasam se

[Repeat Mukhada]

[Interlude 1]

G C C G [2x]

F F C C G D Bb G

[Antaraa]

G G Em Em Dekh lo, humko karib se

CCGG Aaj hum mile hain nasib se

GC Ye pal phir kahaan

DG Aur ye manjil phir kahaan

[Repeat Mukhada]

[Interlude 2]

G G-Gadd9 Guitar picking [4x]

G G Em Em F F G-Gmaj7-Em-G

[Antaraa]
Kyaa kahun, meraa jo haal hai
Raat din, tumhaaraa khayaal hai
Phir bhi, jaan-e-jaan
Main kahaan aur tum kahaan
[Repeat Mukhada]

G G-Gadd9 G G-Gadd9 Gmaj7


Guitar picking + Harmonica [4x] + End

14
http://www.indianguitartabs.com/archive/index.php/f-6.html

Duuurr By Strings

(F#) (B) (F#)


Duuuur Duuuuuuuur
(F#) (B) (F#)
Duuuur Duuuuuuuur
(G#m) (C#) (D#m)
Duur se koi aaye
(D#m) (F#) (G#m)
Kaheen chupke se woh dil me
(C#)
samaa jaaye
(B) (C#)
saajnaaaa

(F#) (B) (F#)


Duuuur Duuuuuuuur
(F#) (B) (F#)
Duuuur Duuuuuuuur
(G#m) (C#) (D#m)
Duur se koi aaye
(D#m) (F#) (G#m)
Kaheen chupke se woh dil me
(C#)
samaa jaaye
(B) (C#)
saajnaaaa

(F#) (B) (F#)


Duuuur Duuuuuuuur
(F#) (B) (F#)
Duuuur Duuuuuuuur

(Solo)

(F#) (B)
Dekhein Mujhe Jab Woh Aankhein
(B) (F#)
Me Kho Jaaoon
(F#)
In aankhon ke raste

15
Duur Continue….. 2nd

(B) (C#) (G#m)


Me us ke dil me samaaon
(G#m)
Kuch keh naa paaon use me
(C#)
Kuch sun naa paaon
(G#m)
Us ke bina mera jeevan
(C#)
Jaise koi soona gaaon

Duuuur Duuuuuuuur (With Rhythm 1 in back)


Duuuur Duuuuuuuur (With Rhythm 1 in back)

(F#) (B)
Suraj ki kirno se bantaa hai
(B) (F#)
chehra tumhara
(F#)
Ik yehi chehra
(B) (C#) (G#m)
hai mera jeevan sahaara
(G#m)
aakhein teri meri nadiyaan
(C#)
palkein giraana
(G#m)
laakhon dekhon me akela
(C#)
hai mera yeh dil bechara

Duuuur Duuuuuuuur (With Rhythm 1 in back)


Duuuur Duuuuuuuur (With Rhythm 1 in back)
Duur se koi aaye
Kaheen chupke se woh dil me
samaa jaaye
saajna
Duuuur Duuuuuuuur (With Rhythm 1 in back)
Duuuur Duuuuuuuur (With Rhythm 1 in back)
Duuuur Duuuuuuuur (With Rhythm 1 in back)
Duuuur Duuuuuuuur (With Rhythm 1 in back)

16
Duur Continue….. 3rd

Solo:
(Solo is in F#)

-e-|-----------|-----------|---------------|-----------|
-B-|-----------|-----------|---------------|-----------|
-G-|-----------|-----------|---------------|-----------|
-D-|---4-3-4---|-6^8v6^8v6-|-6(S)11-9-8(S)-|-4(S)6-4---|
-A-|-4---------|-----------|---------------|-----------|
-E-|-----------|-----------|---------------|-----------|

-e-|-----------|-------------------|-----------|
-B-|-----------|-------------------|-----------|
-G-|-----------|-------------------|-----------|
-D-|---4-3-4---|-6^8v6(H)8(P)6(S)4-|-4(H)6-6---|
-A-|-4---------|-------------------|-----------|
-E-|-----------|-------------------|-----------|

-e-|-----------|------------|---------------|
-B-|-----------|------------|---------------|
-G-|-----------|------------|---------------|
-D-|-8-9-11(R)-|-11(S)13-11-|-11--9-8-------|
-A-|-----------|------------|---------11-9/-|
-E-|-----------|------------|---------------|

Rhythm 1:

(Use little distortion and a reverb delay pedal to match the rhythm)

-e-|----------|-------------|----------------|----
-B-|----------|-------------|-12-12-11-11-9--|----
-G-|-11-11-11-|-11-11-11-11-|-11-11-11-11-11-|-11-
-D-|-11-11-11-|-11-11-11-11-|----------------|-11-

^ - Bend up
v - Bend down
(S) - Slide
(R) - Let Ring
/ - Slide down on string and let fade

17
Do Dil mil Rhe Hai

E-----------------------------------|--------------|-------------------------|
B-----------------------------------|--------------|-------------------------|
G--------------------0--2--0-----0--|Repeat Measure|--------------0-1-0------|
D--0------3-------------------3-----|--------------|--0-0-3-------------3-2-3|
A-----------------------------------|--------------|-------------------------|
E-----------------------------------|--------------|-------------------------|

E-----------------------------------|----------------------------------------|
B-----------------------------------|----------------------------------------|
G--------------------0--2--0-----0--|--------------0-1-0---------------------|
D--0------3-------------------3-----|--0-0-3-------------3-2-3---------------|
A-----------------------------------|----------------------------------------|
E-----------------------------------|----------------------------------------|

E-----------------------------------|-----------------------------------|
B-----------------------------------|-----------------------------------|
G--3--3--3------3-2-0---0--2-0------|--3--3--3-3------3-2-0---0--2-0----|
D---------------------3-------------|-----------------------3-----------|
A-----------------------------------|-----------------------------------|
E-----------------------------------|-----------------------------------|

E-----------------------------------------------|-----------------------|
B-----------------------------------------------|-----------------------|
G------------------0-1-0------------3----3------|-----------------------|
D--1--1Slide5------------3-2-3-------------3-2-0|Play Second Line-------|
A-----------------------------------------------|-----------------------|
E-----------------------------------------------|-----------------------|

E----------------------------------------------------------|-------------------|
B-------1-3-1----------------1----------1-3-1--------------|-------------------|
G----3--------3-2-0------0-------------3------3-2--2-0--0-3|Repeat Previous Bar|
D-------------------3--3-----------------------------------|-------------------|
A----------------------------------------------------------|-------------------|
E----------------------------------------------------------|-------------------|

E----------------------------------------------------------|
B---------------------------1------------------------------|
G--0--1-0------2-0------0-1---0----------------------------|
D-------------------------------3--------------------------|
A----------------------------------------------------------|
E----------------------------------------------------------|

Do dil mil rhe hai Continues….

18
nautilus
12-01-2004, 06:00 PM
i also played this song but a bit differently......plz suggest whether this iS ok or not

E--0--1--3---5--6--5--3--5---|-----0--1--3--3--5--3----1--0--1----
B-------------------------------------------------------------------
G-------------------------------------------------------------------
D-------------------------------------------------------------------
A-------------------------------------------------------------------
E-------------------------------------------------------------------

E--8--8--7--5--3--5--6--5----|----0---1--3--3--5--3--1--0--1------
B-------------------------------------------------------------------
G-------------------------------------------------------------------
D-------------------------------------------------------------------
A-------------------------------------------------------------------
E-------------------------------------------------------------------

Dooba dooba rahta hu

GCG
dooba dooba rehta hoon aakhon main teri
GCG
deewaana ban gaya hoon main chaahat main teri
CDCD
ab din guzarte nahin raate katti nahin
CDC
ab tasweer se baat banti nahin
G
ho aaja
GC
tum jo milgaye diye jal gaye mere aakhon main
AD
aa gaye tum mere khawaabo main aise

19
O O Jaane Jana…

Intro Riff / chorus etc

E----------------------------------------------------------------
B----------------------------------------------------------------
G-------------9--7h9-------5/7-7------------------------------
D-5h7-7-7-------------10----------9-7-9--5/7-5--------------
A----------------------------------------------------------------
E----------------------------------------------------------------

E----------------------------------------------------------------
B---------------------------------------------------------------
G------4-4-4-4-4-------------9-7-9-7-------------------------
D-3/5---------------5/7-7-7--------------9-10-9-10-----------
A---------------------------------------------------------10----
E----------------------------------------------------------------

E-----Repeat throughout-song---------------------------
B----------------------------------------------------------------
G----------------------------------------------------------------
D----------------------------------------------------------------
A----------------------------------------------------------------
E----------------------------------------------------------------

E----------------------------------------------------------------
B----------------------------------------------------------------
G-------------9--7h9-------5/7-7------------------------------
D-5h7-7-7-------------10----------9-7-9--5/7-5--------------
A----------------------------------------------------------------
E----------------------------------------------------------------
O o jaane jaana doondhe tujhe deewaana........etc
E----------------------------------------------------------------
B---------------------------------------------------------------
G------4-4-4-4-4-------------9-7-9-7-------------------------
D-3/5---------------5/7-7-7--------------9-10-9-10-----------
A---------------------------------------------------------10----
E----------------------------------------------------------------

sapno me roz aaye.............

--------------------------------------------------------------------------------

20
Tanha Dil By Shaan

G#m
Aakhon Main sapne Liyea

G#m
Ghar Se hum chal to diyea

G#m C#m
Janea yeah Rahain Ab leyengeagi kahan

E G#m
Manzil Nayee Hai Anjana Hi Kaarvann

E G#m
Chalna Akelea Hai Yahan

same tune for the next para(Mitti ki khsboo ayea...)

The Chorous goes like this..

C#m E
Tanha dil tanha safar

E F#
Dohoondea tujhea fir kayon nazar

The chords remain same in entire song.

The chords for the last chorous part are...

C#m E F# C#m
Hay....Hay....Hay....Hay...aya..Hay

21
Mai koi aisa geet gaau

E-7-----7----7-----------------------
G---5-7--------5-7-10-7----------------------------
D-------------------------------------------
A-------------------------------------------
E-------------------------------------------
Jo Bhi Chaoun WO mein Paoun

E-7-----7----7-----------------------
G---5-7--------5-7-10-7----------------------------
D-------------------------------------------
A-------------------------------------------
E-------------------------------------------
Zindagi mein Jeeet gaoun

E---------------------------------
G--14-10-9-7-10-12-10--12---------------------
D-------------------------------------------
A-------------------------------------------
E-------------------------------------------
Bus Itna Sa Khuwab haiii

E --------------------------------------
B -3-7-7-8-10-7--------------------------------
G --------------------------------------
D --------------------------------------
A --------------------------------------
E --------------------------------------
yaar tu bhi sun zara

E --------------------------------------
B -3-3-7-7-8-10-7-------------------------------
G --------------------------------------
D --------------------------------------
A --------------------------------------
E --------------------------------------
Aarzu meri hai kia

E --------------------------------------
B -7-8-13-12-10-8-12-12-10-----------------------------
G --------------------------------------
D --------------------------------------
A --------------------------------------
E --------------------------------------
mein kia bun jana chahata hu

22
E --------------------------------------
B -3-7-7-8-10-7--------------------------------
G --------------------------------------
D --------------------------------------
A --------------------------------------
E --------------------------------------
mein kahan kharab hu

E --------------------------------------
B -3-3-7-7-8-10-7-------------------------------
G --------------------------------------
D --------------------------------------
A --------------------------------------
E --------------------------------------
mein tu lajwab houn

E --------------------------------------
B -7-8-13-12-10-8-12-12-10-----------------------------
G --------------------------------------
D --------------------------------------
A --------------------------------------
E --------------------------------------
mein yea munwana chahta hu

E --------------------------------------
B --11-7-7-11-9-9-----------------------
G --------------------------------
D --------------------------------------
A --------------------------------------
E --------------------------------------
maaan ja aee Khuda

E --------------------------------------
B -11-11-11-7-11-9-9------------------------
G --------------------------
D --------------------------------------
A --------------------------------------
E --------------------------------------
itnii si hai duwa

E --------------------------------------
B -9-15-13-12-10-8-12-12-10-----------------------------
G --------------------------------------
D --------------------------------------
A --------------------------------------
E --------------------------------------
mein bun jaoun sub se bara

23
E-7-----7----7-----------------------
G---5-7--------5-7-10-7----------------------------
D-------------------------------------------
A-------------------------------------------
E-------------------------------------------
Mere Peechhe Mere Aage

E-7-----7----7-----------------------
G---5-7--------5-7-10-7----------------------------
D-------------------------------------------
A-------------------------------------------
E-------------------------------------------
Haath Jode Duniya Bhaage

E---------------------------------
G--14-10-9-7-10-12-10--12---------------------
D-------------------------------------------
A-------------------------------------------
E-------------------------------------------
Bus Itna Sa Khuwab haiii

E --------------------------------------
B -3-7-7-8-10-7--------------------------------
G --------------------------------------
D --------------------------------------
A --------------------------------------
E --------------------------------------
Shaan Se Rahoon Sada

E --------------------------------------
B -3-3-7-7-8-10-7-------------------------------
G --------------------------------------
D --------------------------------------
A --------------------------------------
E --------------------------------------
Mujhpe Log Hon Fida

E --------------------------------------
B -7-8-13-12-10-8-12-12-10-----------------------------
G --------------------------------------
D --------------------------------------
A --------------------------------------
E --------------------------------------
Haseenayein Bhi Dil Hon Khoti

24
E --------------------------------------
B -3-7-7-8-10-7--------------------------------
G --------------------------------------
D --------------------------------------
A --------------------------------------
E --------------------------------------
Dil Ka Ye Kamal Khile

E --------------------------------------
B -3-3-7-7-8-10-7-------------------------------
G --------------------------------------
D --------------------------------------
A --------------------------------------
E --------------------------------------
Sone Ka Mahal Mile

E --------------------------------------
B -7-8-13-12-10-8-12-12-10-----------------------------
G --------------------------------------
D --------------------------------------
A --------------------------------------
E --------------------------------------
Barasne Lage Heerein Moti

E --------------------------------------
B --11-7-7-11-9-9-----------------------
G --------------------------------
D --------------------------------------
A --------------------------------------
E --------------------------------------
maaan ja aee Khuda

E --------------------------------------
B -11-11-11-7-11-9-9------------------------
G --------------------------
D --------------------------------------
A --------------------------------------
E --------------------------------------
itnii si hai duwa

E --------------------------------------
B -9-15-13-12-10-8-12-12-10-----------------------------
G --------------------------------------
D --------------------------------------
A --------------------------------------
E --------------------------------------
Main Jyaada Nahin Maangta

25
Dil Chahta Hai
E-----------------------------------------------------
B-----------------------------------------------------
G-----------------------------------------------------
D-----------------------------------------------------
A------1-3----3-3----------1-3---3-3--------1-3---3-3-
E-1-3-----------------1-3--------------1-3------------

E-----------------------------------------------------
B-----------------------------------------------------
G-----------------------------------------------------
D-----------------------------------------------------
A----------1--3-3-------------1--3-3------------------
E--1---3--------------1---3---------------------------
F G A# C C F G A# C C
Dil chahta hai, dil chahta hai

E-----------------------------------------------------
B-----------------------------------------------------
G-----------------------------------------------------
D------------------1--1--0--3-1--0--------------------
A-----------1--3-------------------3----------1-3-----
E--1---3-------------------------------1--3-----------
F G A# C D# D# D F D# D C F G A# C
Dil chahta hai, kabhi na beete chamkile din
Dil chahta hai, hum na rahe kabhi, yaaron ke bin

E-----------------------------------------------------
B-----------------------------------------------------
G--3---2------0--3---------3---3---2---0--------------
D----------3------------------------------------------
A-----------------------------------------------------
E-----------------------------------------------------
A# A F G A#, A# A# A G
Din din bhar ho pyaari baatein
Jhoome shaame, gaaye raatein

E------------------6--6----5-5-3--3-----5-------------
B--3--6--3----6-3-------------------6-6----8-8--------
G-----------------------------------------------------
D-----------------------------------------------------
A-----------------------------------------------------
E-----------------------------------------------------
D F D F D A# A# A A G G F F A G G
Masti mein rahe dooba dooba hameshaa samaa

E-----------------------3--3-1-1----------------------
B--3--6--3---6--3---3------------3-3--1----3-1-1------
G---------------------------------------3-------------
D-----------------------------------------------------
A-----------------------------------------------------
E-----------------------------------------------------
D F D F D D G G F F D D C A# D C C
Humko raahon mein yunhi milti rahe khushiyaan

26
Dil chahta hai, kabhi na beete chamkile din, oh oh
Dil chahta hai, hum na rahe kabhi yaaron ke bin

the music somewhere in the song...


-8-------6---8--------6---8---------------------------
-----8-------------8----------------------------------
------------------------------------------------------
------------------------------------------------------
------------------------------------------------------
c g a# c, g a# c,

-8-------6---8-----------6---5------------------------
-----8----------6---------------8---6-----------------
------------------------------------------------------
------------------------------------------------------
------------------------------------------------------
c g a# c f, a# a g f,

------------------------------------------------------
--4---1---4----3--------1-----------------------------
---------------------3--------0----3-----1------------
------------------------------------------------------
------------------------------------------------------
d# c d#, d a# c g a# c

27
Aisa Zakhm Diya Hai:

A
(Intro in G, Am)
Aaya hoon yaaron dil apna deke
Aankhon mein chehraa kisi ka leke
Voh dil ka qaatil dilbar hamaara
Jiske liye main hua aawaara
Milte hi jisne chooma tha mujhko
Phir na palat ke dekha dobaara
Aur isi liye doston maine faislaa kiya
Ke phir kabhi kisi se pyaar nahin karoonga
Kabhi kisi ladki ko apna dil nahin doonga

Am--------------------------------G
(Aisa zakhm diya hai jo na phir bharega
G-----------------G--F-------------G
Har haseen chehre se ab yeh dil darega
Am---------------------------G-----
Hum to jaan dekar yunhi mar mite the
G------------------------G----F------G---Am (End with Am as hogaaaa(Am in aaaa)
Sun lo ae haseenon, yeh humse ab na hoga) - 2
Aisa zakhm diya hai

Am--------------------G--Am---G (we can leave Am at ga)


Raseele honth, chhalakte gaaaal
G--------F--G----------------Am--G
Mastaani chaaal buraa kar de haaaal
Am----------------------G
Palak bhadke ye dil dhadke
G------------------------F---Am (can leave F)
Umar ki uthaan, kadakti kamaaal
E-------G------G------E
Qaatil adaa, zaalim hayaa
E--F Am--G----G------Am
Mere khudaaa, mere khudaa
E-------G----E--------Am-----Am-----G--Am (slips from G to Am)
Shola badan, baheka chaman, magar yaaronn
Am---------------------------G-----
Hum to jaan dekar yunhi mar mite the
G------------------------G----F------G---Am (End with Am as hogaaaa(Am in aaaa)
Sun lo ae haseenon, yeh humse ab na hoga) - 2

Aisa zakhm diya hai jo na phir bharega


Har haseen chehre se ab yeh dil darrega
Hum to jaan dekar yunhi mar mite the
Sun lo ae haseenon, yeh humse ab na hoga
Aisa zakhm diya hai

(Similar to Stanza1 in Am,G,F)


Raseele honth, chhalakte gaal

28
--0--0----------2----------0---------------------5-----------4---------------
------------------------------------------------------------------------------
------------------------------------------------------------------------------
------------------------------------------------------------------------------
------------------------------------------------------------------------------
------------------------------------------------------------------------------

Happy Birthday to you ............

--0--0----------2----------0---------------------7-----------5---------------
------------------------------------------------------------------------------
------------------------------------------------------------------------------
------------------------------------------------------------------------------
------------------------------------------------------------------------------
------------------------------------------------------------------------------

Happy Birthday to YOU ............

--0--0----------9---7-----5------4--------------2----------------------------
------------------------------------------------------------------------------
------------------------------------------------------------------------------
------------------------------------------------------------------------------
------------------------------------------------------------------------------
------------------------------------------------------------------------------

Happy Birthday to dear.....xxxxxxx.........

--9--9----------7-------5---------------------7-----------5------------------
------------------------------------------------------------------------------
------------------------------------------------------------------------------
------------------------------------------------------------------------------
------------------------------------------------------------------------------
------------------------------------------------------------------------------

29
o o jaane jaana pyar kiya to darna kya

E|--------------------------------------------------|
B|----------5--3-5-1------------3-3---0----0--------|
G|--2--2-2------------------------------2----2-0-----|
D|-------------------------------------------------|
a a a e d e c, d d b a b a g

E|--------------------------------------------------|
B|------0-0-0--0-------------5---3-5--1-3--0-1------|
G|-0--0--------------2--2-2---------------------2---|
D|--------------------------------------------------|
g g b b b b, a a a e d e c d b c a
=======================================

E|--------------------------------------------------|
B|--1--1-0----0-------------3-3----0-----0----------|
G|---------2----1--------------------2-----2--0-----|
D|--------------------------------------------------|
ccbabcddbabag
o o jaane jaana dhoonde tujhe deewaana

E|--------------------------------------------------|
B|----0-0-0-0--0-0-5--------5-5-0-1-1-0-------------|
G|-0------------------------------------2-----------|
D|--------------------------------------------------|
gbbbbbbeeebccba
sapno mein roz aaye aa jindagi mein aana
=======================================

E|----0---------------------------------------------|
B|------1-----3--0-------------0--1-----------------|
G|-2--------2---------0-0---2--------2--------------|
D|--------------------------------------------------|
aecadbggabca
Mera khwab mere khayalon ki rani
gabba

E|----------0---------------------------------------|
B|------1-----3-3------------0--1-------------------|
G|-2--2--------------0-0--2--------2----------------|
D|--------------------------------------------------|
aaceddggabca
Kisi din banegi hamari kahani

E|-0--0-2---2--0------------0---0-------------------|
B|---------------3----3---3--------3--1-------------|
G|--------------------------------------------------|
D|--------------------------------------------------|
e e f# f# e d d d e e d c
Ai mere bekhudi yeh kasam maine lee

E|--------------------------0-------0-----0-----------|
B|-0-----0----1----0---1-3--------3-----3---3--1--0---|
G|----2---------2-----------------------------------2-|
D|----------------------------------------------------|
babcabcdedededcba
pyaar mein ek din meri jaan tujhe hai paana

30
References:

http://hindisongschords.blogspot.com/2008/02/ye-mera-dil-ye-mera-dil.html

31