You are on page 1of 5

Rolling Star Tab by Yui, www.Ultimate-Guitar.

Com

dis is da song fo da bleach song. i dunno if it's good or bad but i'm gonna
combine da
and da chords from da previous versions of dis song on ultimate guitar and make da

song. so big props for da people dat found out da intro and da chords for this
song.

lead intro
e-----0---------0--------0--------5----|
B---3---3-----3---3----3---3----3---3--|
G-4---------2--------0--------4--------| (2x)
D
A
E

rhythem intro
chords
(B) (D) (A) (G) (B) (D) (A) (G)
e-------2-----------3-----------2-----------3------|
B-------3(8x)-2-----0-----------3(8x)-2-----0------|
G--4----2-----2(8x)-0(8x)-4-----2-----2(8x)-0(16x)-|
D--4(8x)------2-----0-----4(8x)-------2-----0------|
A--2----------------2-----2-----------------2------|
E-------------------3-----------------------3------|

Verses (Both Guitars or rhythem)


(D) (G)
e-2-----3---------(one guitar plays this small part) e-10-9-10~--|
B-3(8x)-0------------------------------------------- B-----------|
G-2-----0(8x)play this rhythem 4 times-------------- G-----------|
D-------0------------------------------------------- D-----------|
A-------2------------------------------------------- A-----------|
E-------3------------------------------------------- E-----------|

Pre-Chorus (Both or Rhythem Guitar)


e--------------------------|
B--------------------------|
G--------------------------|
D-4-----5-----4-----5------|
A-4(3x)-5(1x)-4(3x)-5(1x)--|
E-2-----3-----2-----3------|

Chorus
for rhythem guitar, play the intro.

Chords
(B)8x (D)8x (A)8x (G)8x (B)8x (D)8x (A)8x (G)16x

Lead guitar
e-10-9----10-9----10-9--------------------------|(play this rhythem 4 times)
B------10------10-------------------------------|
G-
D
A
E
intro for both guitars
verse
pre-chorus
chorus

postchorus play chorus/intro(rhythem part)(Can't tell how many times u strike each
chord)

Bridge (rhythem)(Can't tell how much u strike each chord. do wat rhytem u think
is right)
(F#)(G)(B)(G)(F#)(G)(A)(B)
e----3-----3------3--------|
B----0-----0------0--2-----|
G----0--4--0------0--2--4--|
D-4--0--4--0--4---0--2--4--|
A-4--2--2--2--4---2-----2--|
E-2--3-----3--2---3--------|

lead guitar (solo, really crappy though)


(the / between notes signifies a slide)(b=bend fo u noobs!)
e-------------------------------------------------------------|
B------------------151515-15/12-1212-12/10-10/7-7b----3-5-8-7-|
G--------------------------------------------------4b---------|
D-4-44-4-4/5-5-55---------------------------------------------|
A-4-44-4-4/5-5-55---------------------------------------------|
E-2-22-2-2/3-3-33---------------------------------------------|
solo continued
e-9/1010-9/10101010-9/10101010-9/10101010-15-12-9-3-5-7------|
B-9/1010-9/10101010-9/10101010-9/10101010-15-12-9-3-5-7------|
G------------------------------------------------------------|
D------------------------------------------------------------|
A------------------------------------------------------------|
E------------------------------------------------------------|

post bridge(can't tell how many strokes it is)


rythem
(Em)(G)(A)(D)
e-----3-----2--|
B-----0--2--3--|
G-----0--2--2--|(play rhythem 4 times)
D-2---0--2-----|
A-2---2--------|
E-----3--------|

lead
e----
B--8-7-8---8-7-8---8-7-8-10-8-7-8-7-8--|(play this 4 times)
G-7------7-------7---------------------|
D-
A-
E-

chorus
post chorus
intro
end
Rolling Star Tab by Yui, www.Ultimate-Guitar.Com

INTRO TO START OF BRIDGE IS DONE. THE WAH PART AND THE PART AFTER THE BRIDGE IS
email me @ deckerkain@hotmail.com for comments or corrections

P = Palm Muted
~ = Let ring
S = Scratch
^ = Bend
x = treat as the note before

[Intro]-Picking [play 2x]


Guitar 1
e|------0-0---------0-0----------0-0--------5-5--------|-----5-x-x-5-x-x-5--|
B|----3---3-------3---3--------2---2------3---3--------|-----3-x-x-3-x-x-3--|
G|--4-----------2------------2----------0--------------|-----0-x-x-0-x-x-0--|
D|-----------------------------------------------------|--------------------|
A|-----------------------------------------------------|--------------------|
E|-----------------------------------------------------|--------------------|
s s s s
Guitar 2
e|-----------------------------------------------------|--------------------|
B|-----------------------------------------------------|--------------------|
G|--4-4-4-4-----7-7-7-7--------------------------------|-----14x-x-14x-x-14-|
D|--4-4-4-4-----7-7-7-7------7-7-7-7-----5-5-5-5-------|-----12x-x-12x-x-12-|
A|--2-2-2-2-----5-5-5-5------7-7-7-7-----5-5-5-5-------|-----0-x-x-0-x-x-0--|
E|---------------------------5-5-5-5-----3-3-3-3-------|--------------------|
P P P P P P P P P P P P s s s s

End of intro is a scratch

[after the intro]


Guitar 1 [let ring for another bar after]
e|---------------------------------------------------------2~~~~~~~~~~~-----|
B|-------------------------------------------------------------3~~~~~~~-----|
G|------------------------------------------------------2~~~~~~~~~~~~~~-----|
D|--------------------------------------------------------------------------|
A|--------------------------------------------------------------------------|
E|--------------------------------------------------------------------------|

Guitar 2 [x2]
e|--------------------------------------------------------------------------|
B|--------------------------------------------------------------------------|
G|--7-x-x-x-x-x-x---------------------7-x-x-x-x-x-x-x-----------------------|
D|--7-x-x-x-x-x-x---5-x-x-x-x-x-x-x---7-x-x-x-x-x-x-x---5-x-x-x-x-x-x-x-----|
A|--5-x-x-x-x-x-x---5-x-x-x-x-x-x-x---5-x-x-x-x-x-x-x---5-x-x-x-x-x-x-x-----|
E|------------------3-x-x-x-x-x-x-x---------------------3-x-x-x-x-x-x-x-----|
P P P P P P P P P P P P P P P P P P P P P P P P P P P

[next part]
Guitar 1
e|--------------------------------------------------------------------------|
B|--------------------------------------------------------------------------|
G|--------------------------------------------------------------------------|
D|--------------------------------------------------------------------------|
A|--------------------------------------------------------------------------|
E|--------------------------------------------------------------------------|

Guitar 2 [x2]
e|--------------------------------------------------------------------------|
B|--------------------------------------------------------------------------|
G|-----------------0-0----0-0----------------------0-0----0-0---------------|
D|--4---4---4---5--5-5----5-5-------4---4---4---5--5-5----5-5---------------|
A|--4---4---4---5--5-5----5-5-------4---4---4---5--5-5----5-5---------------|
E|--2---2---2---3-------------------2---2---2---3---------------------------|
S S S S S S S S
[the part after that]
Guitar 1 [repeat x3]
e|--10--9----------10--9------------10--9-----------------------------------|
B|---------10-------------10------------------------------------------------|
G|--------------------------------------------------------------------------|
D|--------------------------------------------------------------------------|
A|--------------------------------------------------------------------------|
E|--------------------------------------------------------------------------|

Guitar 2 [repeat x2]


e|--------------------------------------------------------------------------|
B|--------------------------------------------------------------------------|
G|--4-4-4-4-4-4-4--7-7-7-7-7-7-7-7------------------------------------------|
D|--4-4-4-4-4-4-4--7-7-7-7-7-7-7-7--7-7-7-7-7-7-7-7--5-5-5-5-5-5-5-5--------|
A|--2-2-2-2-2-2-2--5-5-5-5-5-5-5-5--7-7-7-7-7-7-7-7--5-5-5-5-5-5-5-5--------|
E|----------------------------------5-5-5-5-5-5-5-5--3-3-3-3-3-3-3-3--------|

[the part after after that ]


Guitar 1 with Wah
e|--------------------------------------------------------------------------|
B|--------------------------------------------------------------------------|
G|--------------------------------------------------------------------------|
D|--------------------------------------------------------------------------|
A|--------------------------------------------------------------------------|
E|--------------------------------------------------------------------------|

Guitar 2
e|------------7----------------5-------------------12---------------10------|
B|------------10^12------------9^10----------------15^17------------14^15---|
G|----7------------------7-------------------6------------------4-----------|
D|--9------------------7-------------------7------------------5-------------|
A|--------------------------------------------------------------------------|
E|--------------------------------------------------------------------------|
p p p p p p p p

e|--------------------------------------------------------------------------|
B|--------------------------------------------------------------------------|
G|--4-4-4-4-4-4-4--7-7-7-7-7-7-7-7------------------------------------------|
D|--4-4-4-4-4-4-4--7-7-7-7-7-7-7-7--7-7-7-7-7-7-7-7--5-5-5-5-5-5-5-5--------|
A|--2-2-2-2-2-2-2--5-5-5-5-5-5-5-5--7-7-7-7-7-7-7-7--5-5-5-5-5-5-5-5--------|
E|----------------------------------5-5-5-5-5-5-5-5--3-3-3-3-3-3-3-3--------|

[bridge]
Guitar 1 [repeat x3]
e|--------------------------------------------------------------------------|
B|--------------------------------------------------------------------------|
G|--------------------------------------------------------------------------|
D|--------------------------------------------------------------------------|
A|--------------------------------------------------------------------------|
E|--------------------------------------------------------------------------|

Guitar 2 [repeat x2]


e|--------------------------------------------------------------------------|
B|--------------------------------------------------------------------------|
G|--------------------------------------------------------------------------|
D|--4---4-4-4---4-5-5--5-5-5------------------------------------------------|
A|--4---4-4-4---4-5-5--5-5-5------------------------------------------------|
E|--2---2-2-2---2-3-3--3-3-3------------------------------------------------|

SEQUENCE:
[Intro]
[After the intro]
[next part]
[the part after that]
[Intro]
[After the intro]
[next part]
[the part after that]
[the part after after that]
[bridge]
[after the bridge]
[the part after that]
[that part after after that]
[Intro]

e|--------------------------------------------------------------------------------
-|
B|--------------------------------------------------------------------------------
-|
G|--------------------------------------------------------------------------------
-|
D|------------------------------------------------------------------7-----
7--------|
A|--------5--7--5--7--0--0--5--7--5--7--0--0--5--7--5--7---------5-----
5-----------|
E|---7--7--------------------------------------------------7--
7--------------------|