#-----------------------------------------------------------------------------#

#-- File created with Instab - http://www.pconline.com/~smcarey/instab.html --#
#-----------------------------------------------------------------------------#
Author/Artist: Creed
Title: One Last Breath
Album: Weathered
Transcribed by: Andrew Shantz and Steve Rose
Email: ashantz@sympatico.ca
Hey everyone, this is my very first tab. I 99.9% sure it's correct. I used a
special program to slow down the verse section in order to catch all the right
notes. I hope you like it. If you have any questions, comments, or corrections
be sure to let me know. Thanks.
Verse - (clean)
-2---5---0h2-------------------------------------------------------3-2-|
-------------3-----2-3-3h5---5h3h2-3---0---3---2h3h0-----------3-------|
---------------0-------------------------------------0-----0-----2-----|
-0-0---0-------------------------------------------------0---0---------|
-----------------0---------0---------0---2---2-------------------------|
-------------------------------------------------------3---------------|
-2---3---2h3h2---------------------------------2---------------3-------|
---------------3---------2-2h3h2-------------2---2---------------3-----|
-----------------------2---------2---0-----4-------4-0-------0-----0---|
-0-0---0-------------2-------------4-----4-----------------0---------0-|
-----------------4-0-------------------2-----------------2-------------|
-------------------------------------------------------3---------------|
Chorus #1 - (clean)
-2--------0--------2--------3-|
-3--------0--------2--------3-|
-2--------3--------4--------0-|
-0--------4--------4--------0-|
----------4--------2--------2-|
----------2-----------------3-|
Chorus #2 - (w/distortion)
------------------------------|
------------------------------|
-7-----------------4----------|
-7--------4--------4--------5-|
-5--------4--------2--------5-|
----------2-----------------3-|
Intro To Bridge - (w/distortion)
-------------|
-------------|
-4-----------|
-4---------5-|
-2---------5-|
-----------3-|
Bridge - (w/distortion)
-----------------|------------------|

-----------------|------------------|
---------------7-|--------7---------|
-2------7------7-|-2------7-------5-|
-2------7------5-|-2------5-------3-|
-0------5--------|-0--------------3-|
Outro - (clean)
-2---5---2h0---------------------------------------------------3---|
-------------3-----2-3-3h5---5h3h2-3---0---3---2h3h0-------------3-|
---------------0-------------------------------------0-----0-------|
-0-0---0-------------------------------------------------0---0-----|
-----------------0---------0---------0---2---2---------------------|
-------------------------------------------------------3-----------|
|start to slow down
Verse x3
Chorus #1 (0:47) x2
Verse (1:02) x3
Chorus #2 (1:47) X4
Intro To Bridge (2:17) x2
Bridge (2:24) x2
Chorus #1 (2:54) x2
Chorus #2 (3:09) X4
Outro (3:41)

Sign up to vote on this title
UsefulNot useful